mercredi 2 juin 2021

              METTEZ-VOUS DANS LA COURSE EN GAGNANT A 100% AUX PRONOSTICS DIAMANT AVEC TOUTES SES INFORMATIONS DISCRETES ET CONFIDENTIELLES  :

ABONNEMENT SOLDE VIP TOP DES TOP PERSONNALITE SPECIAL HIVER

TIERCE QUINZAINE:  79 euros

QUARTE QUINZAINE: 99 euros

QUINTE QUINZAINE: 103 euros

100% à l'arrivée!!!

Phone & WhatsApp: +33 7 896 35 372

Agent Afrique Tel & WhatsApp : +226 64 057 666

E-mail: coupssurs2022@gmail.com


VIVEZ LES COURSES EN DIRECT EN GAGNANT TOUTES LES COURSES AVEC LES DECIDEURS DES NUMERIQUES PMU.FR. FAITES VOS ABONNEMENTS TOP DES TOPS VIP EN QUINZAINE ET VOUS SEREZ HEUREUX CHAQUE JOUR




--------------------------------------------------------------------------------------------------------------

30/11/2022 PRIX DU CHATEAU DE BAYEUX
13:55 - Réunion 1 Course 1 - DEAUVILLE
PLAT - 2500m - 50000.00€ - Corde à droite

SPECIAL ABONNE VIP ORDRE

 L'INCONTOURNABLE: 00

TIERCE:00-00-00
QUARTE image00-00-00-00-00

QUINTE
image
00-00-00-00-00-00

PRONOSTIC PMU ET QUINTÉ+ GRATUIT

FORME : 6-13-5-3

REGULIER : 16-15-7-6

CLASSE : 4-11-9-13

PROGRES : 1-10

SYNTHESE DU SPECIALISTE
6-13-5-3-16-15-7-4-11-9-1-10

------------------------------------------------------------------------------------------


29/11/2022 PRIX DU MANOIR DE LA SALAMANDRE
13:50 - Réunion 1 Course 2 - DEAUVILLE
PLAT - 1900m - 50000.00€ - Corde à droite


SPECIAL ABONNE VIP ORDRE

 L'INCONTOURNABLE: 01

TIERCE:01-09-11
QUARTE image01-09-11-06-15

QUINTE
image
01-09-06-11-130-15

PRONOSTIC PMU ET QUINTÉ+ GRATUIT

FORME : 6-4-8-1

REGULIER : 12-10-2-13

CLASSE : 15-3-7-9

PROGRES : 16-14-11

SYNTHESE DU SPECIALISTE
6-4-8-1-12-10-2-13-15-3-7-9-16-14-11

------------------------------------------------------------------------------------------


28/11/2022 PRIX DE MESLAY DU MAINE
13:50 - Réunion 1 Course 1 - PARIS-VINCENNES
TROT ATTELE - 2700m - 61000.00€ - Corde à gauche


SPECIAL ABONNE VIP ORDRE

 L'INCONTOURNABLE: 08

TIERCE:08-15-05
QUARTE image08-15-12-05-07

QUINTE
image
08-15-05-12-07-14

PRONOSTIC PMU ET QUINTÉ+ GRATUIT

FORME : 10-12-15-7

REGULIER : 8-4-5-14

CLASSE : 16-4-10-12

PROGRES : 6-2-9-1

SYNTHESE DU SPECIALISTE
10-12-15-7-8-4-5-14-6-2-9-1

------------------------------------------------------------------------------------------

27/11/2022 PRIX MAX SICARD - 17EME ETAPE DU                   DEFI DU GALOP
  15:50 - Réunion 1 Course 1 - TOULOUSE
       PLAT - 2400m - 60000.00€ - Corde à droite


SPECIAL ABONNE VIP ORDRE

 L'INCONTOURNABLE: 05

TIERCE:05-16-10
QUARTE image05-16-10-06-08

QUINTE
image
05-16-10-06-12-08

PRONOSTIC PMU ET QUINTÉ+ GRATUIT

FORME : 5-6-10-17

REGULIER : 16-4-3-14

CLASSE : 12-13-7-4

PROGRES : 1

SYNTHESE DU SPECIALISTE
5-6-10-17-16-4-3-14-12-13-7-4-1

------------------------------------------------------------------------------------------


26/11/2022 PRIX DANIEL MIETTE
15:15 - Réunion 1 Course 7 - PARIS-VINCENNES
TROT ATTELE - 2700m - 75000.00€ - Corde à gauche


SPECIAL ABONNE VIP ORDRE

 L'INCONTOURNABLE: 09

TIERCE:09-03-12
QUARTE image09-03-12-02-06

QUINTE
image
09-03-12-02-06-10

PRONOSTIC PMU ET QUINTÉ+ GRATUIT

FORME : 3-4-2-5

REGULIER : 12-9-14-6

CLASSE : 7-1-11-3

PROGRES : 10

SYNTHESE DU SPECIALISTE
3-4-2-5-12-9-14-6-7-1-11-10

------------------------------------------------------------------------------------------

25/11/2022 PRIX TRITON
20:15 - Réunion 1 Course 3 - PARIS-VINCENNES
TROT ATTELE - 2700m - 44000.00€ - Corde à gauche

SPECIAL ABONNE VIP ORDRE

 L'INCONTOURNABLE: 08

TIERCE:08-14-02
QUARTE image08-14-02-09-04

QUINTE
image
08-14-02-09-04-12

PRONOSTIC PMU ET QUINTÉ+ GRATUIT

FORME : 9-14-16-4

REGULIER : 1-8-10-14

CLASSE : 2-5-7-15

PROGRES : 12

SYNTHESE DU SPECIALISTE
9-14-16-4-1-8-10-14-2-5-7-15-12

------------------------------------------------------------------------------------------


24/11/2022 PRIX DE SILLE-LE-GUILLAUME
13:50 - Réunion 1 Course 1 - PARIS-VINCENNES
TROT ATTELE - 2850m - 65000.00€ - Corde à gauche

SPECIAL ABONNE VIP ORDRE

 L'INCONTOURNABLE: 13

TIERCE:13-07-16
QUARTE image13-07-16-05-14

QUINTE
image
13-07-16-05-14-04

PRONOSTIC PMU ET QUINTÉ+ GRATUIT

FORME : 16-13-7-5

REGULIER : 3-12-1-15

CLASSE : 14-9-16-7

PROGRES : 8-11

SYNTHESE DU SPECIALISTE
16-13-7-5-3-12-1-15-14-9-8-11

------------------------------------------------------------------------------------------

23/11/2022 GRAND NATIONAL DU TROT
13:55 - Réunion 1 Course 1 - MAUQUENCHY
TROT ATTELE - 2850m - 90000.00€ - Corde à gauche

SPECIAL ABONNE VIP ORDRE

 L'INCONTOURNABLE: 02

TIERCE:02-03-07
QUARTE image03-02-07-10-06

QUINTE
image
03-02-07-10-06-13

PRONOSTIC PMU ET QUINTÉ+ GRATUIT

FORME : 7-4-13-1

REGULIER : 10-11-2-3

CLASSE : 6-5-4-7

PROGRES : 16-8

SYNTHESE DU SPECIALISTE
7-4-13-1-10-11-2-3-6-5-16-8

------------------------------------------------------------------------------------------


22/11/2022 PRIX D'Utah Beach
13:50 - Réunion 1 Course 1 - Deauville
Plat - 1300m - 50000.00€ - Corde à droite


SPECIAL ABONNE VIP ORDRE

 L'INCONTOURNABLE: 13

TIERCE:13-04-07
QUARTE image13-04-07-08-03

QUINTE
image
07-04-13-08-03-10

PRONOSTIC PMU ET QUINTÉ+ GRATUIT

FORME : 13-1-9-2

REGULIER : 4-11-3-8

CLASSE : 14-12-7-13

PROGRES : 15-5-10

SYNTHESE DU SPECIALISTE
13-1-9-2-4-11-3-8-14-12-7-15-5-10

------------------------------------------------------------------------------------------


21/11/2022 PRIX DE MONTIGNAC-CHARENTE
13:50 - Réunion 1 Course 1 - PARIS-VINCENNES
TROT ATTELE - 2700m - 90000.00€ - Corde à gauche

SPECIAL ABONNE VIP ORDRE

 L'INCONTOURNABLE: 04

TIERCE:04-11-03
QUARTE image04-11-03-09-05

QUINTE
image
04-11-03-09-05-06

PRONOSTIC PMU ET QUINTÉ+ GRATUIT

FORME : 9-3-10-6

REGULIER : 11-1-4-5

CLASSE : 7-12-8-3

PROGRES : 2-13

SYNTHESE DU SPECIALISTE
9-3-10-6-11-1-4-5-7-12-8-2-13

------------------------------------------------------------------------------------------


20/11/2022 PRIX D'AMERIQUE RACES ZETURF Q1
15:15 - Réunion 1 Course 4 - PARIS-VINCENNES
TROT ATTELE - 2700m - 120000.00€ - Corde à gauche

SPECIAL ABONNE VIP ORDRE

 L'INCONTOURNABLE: 02

TIERCE:02-15-08
QUARTE image02-15-08-14-17

QUINTE
image
02-15-08-14-17-07

PRONOSTIC PMU ET QUINTÉ+ GRATUIT

FORME : 13-17-15-16

REGULIER : 7-2-14-8

CLASSE : 9-5-3-13

PROGRES : 11-5

SYNTHESE DU SPECIALISTE
13-17-15-16-7-2-14-8-9-5-3-11-5

------------------------------------------------------------------------------------------


19/11/2022 PRIX MARC ANTONY
15:15 - Réunion 1 Course 6 - AUTEUIL
HAIES - 3900m - 95000.00€


SPECIAL ABONNE VIP ORDRE

 L'INCONTOURNABLE: 01

TIERCE:01-04-08
QUARTE image01-04-02-08-09

QUINTE
image
01-04-02-08-09-03

PRONOSTIC PMU ET QUINTÉ+ GRATUIT

FORME : 9-3-11-2

REGULIER : 7-8-6-1

CLASSE : 4-15-5-9

PROGRES : 12-13

SYNTHESE DU SPECIALISTE
9-3-11-2-7-8-6-1-4-15-5-12-13

------------------------------------------------------------------------------------------

18/11/2022 PRIX MIZAR
20:15 - Réunion 1 Course 3 - PARIS-VINCENNES
TROT ATTELE - 2100m - 51000.00€


SPECIAL ABONNE VIP ORDRE

 L'INCONTOURNABLE 03

TIERCE:03-14-02
QUARTE image03-14-02-06-13

QUINTE
image
03-14-02-06-13-04

PRONOSTIC PMU ET QUINTÉ+ GRATUIT

FORME : 4-6-3-8

REGULIER : 2-13-12-7

CLASSE : 14-1

PROGRES : 4

SYNTHESE DU SPECIALISTE
4-6-3-8-2-13-12-7-14-1

------------------------------------------------------------------------------------------


17/11/2022 PRIX DE LA VALLEE DE CHEVREUSE
13:50 - Réunion 1 Course 3 - SAINT CLOUD
    PLAT - 2000m - 50000.00€ - Corde à gauche


SPECIAL ABONNE VIP ORDRE

 L'INCONTOURNABLE 15

TIERCE:15-11-13
QUARTE image11-15-13-06-08

QUINTE
image
15-11-13-06-09-08

PRONOSTIC PMU ET QUINTÉ+ GRATUIT

FORME : 5-7-15-2

REGULIER : 13-6-10-12

CLASSE : 3-11-8-14

PROGRES : 1

SYNTHESE DU SPECIALISTE
5-7-15-2-13-6-10-12-3-11-8-14-1

------------------------------------------------------------------------------------------


16/11/2022 PRIX DU CABINET DES CLOUETS
13:55 - Réunion 1 Course 4 - CHANTILLY
PLAT - 1600m - 50000.00€ - Corde à droite


SPECIAL ABONNE VIP ORDRE

 L'INCONTOURNABLE 04

TIERCE:04-07-06
QUARTE image04-07-06-14-10

QUINTE
image
04-07-06-14-10-08

PRONOSTIC PMU ET QUINTÉ+ GRATUIT

FORME : 6-10-9-7

REGULIER : 14-12-4-3

CLASSE : 15-13-5-6

PROGRES : 1-11

SYNTHESE DU SPECIALISTE
6-10-9-7-14-12-4-3-15-13-5-1-11

------------------------------------------------------------------------------------------

15/11/2022 PRIX DE LA CHAMBRE DE MONSIEUR LE PRINCE
13:50 - Réunion 1 Course 5 - CHANTILLY
PLAT - 1800m - 55000.00€ - Corde à droite

SPECIAL ABONNE VIP ORDRE

 L'INCONTOURNABLE 12

TIERCE:12-07-11
QUARTE image12-07-11-05-01

QUINTE
image
12-07-11-05-01-02

PRONOSTIC PMU ET QUINTÉ+ GRATUIT

FORME : 5-6-1-2

REGULIER : 3-9-16-4

CLASSE : 11-7-12-14

PROGRES : 6-10-15

SYNTHESE DU SPECIALISTE
5-6-1-2-3-9-16-4-11-7-12-14-6-10-15

------------------------------------------------------------------------------------------


14/11/2022 PRIX BEACHCOMBER RESORTS & HOTELS
13:50 - Réunion 1 Course 4 - BORDEAUX-LE BOUSCAT
TROT ATTELE - 2650m - 38000.00€ - Corde à droite


SPECIAL ABONNE VIP ORDRE

 L'INCONTOURNABLE 07

TIERCE:07-02-13
QUARTE image07-02-13-10-12

QUINTE
image
07-02-13-10-12-03

PRONOSTIC PMU ET QUINTÉ+ GRATUIT

FORME : 7-2-10-3

REGULIER : 13-12-5-9

CLASSE : 4-6-1-7

PROGRES : 11

SYNTHESE DU SPECIALISTE
7-2-10-3-13-12-5-9-4-6-1-11

------------------------------------------------------------------------------------------


13/11/2022 PRIX RMC DECOUVERTE - PRIX COUNT SCHOMBERG
15:15 - Réunion 1 Course 5 - AUTEUIL
HAIES - 4300m - 95000.00€


SPECIAL ABONNE VIP ORDRE

 L'INCONTOURNABLE 10

TIERCE:10-11-07
QUARTE image10-07-11-05-13

QUINTE
image
10-07-11-05-13-14

PRONOSTIC PMU ET QUINTÉ+ GRATUIT

FORME : 10-5-4-2

REGULIER : 11-3-1-7

CLASSE : 12-6-13-5

PROGRES : 10-5

SYNTHESE DU SPECIALISTE
10-5-4-2-11-3-1-7-12-6-13

------------------------------------------------------------------------------------------


12/11/2022 PRIX ATLANTIC
15:15 - Réunion 1 Course 3 - PARIS-VINCENNES
TROT ATTELE - 2700m - 57000.00€ - Corde à gauche

SPECIAL ABONNE VIP ORDRE

 L'INCONTOURNABLE 11

TIERCE:11-01-02
QUARTE image11-01-02-05-08

QUINTE
image
11-01-02-05-08-04

PRONOSTIC PMU ET QUINTÉ+ GRATUIT

FORME : 11-2-1-5

REGULIER : 9-12-8-4

CLASSE : 6-13-11-2

PROGRES : 15

SYNTHESE DU SPECIALISTE
11-2-1-5-9-12-8-4-6-13-15

------------------------------------------------------------------------------------------


11/11/2022 PRIX DE LA VILLE DE TOULOUSE
15:15 - Réunion 1 Course 3 - TOULOUSE
PLAT - 2400m - 50000.00€ - Corde à droite

SPECIAL ABONNE VIP ORDRE

 L'INCONTOURNABLE 13

TIERCE:13-07-09
QUARTE image13-07-09-03-12

QUINTE
image
13-07-09-03-12-02

PRONOSTIC PMU ET QUINTÉ+ GRATUIT

FORME : 13-5-4-15

REGULIER : 3-14-9-8

CLASSE : 1-7-2-16

PROGRES : 11-10

SYNTHESE DU SPECIALISTE
13-5-4-15-3-14-9-8-1-7-2-16-11-10

------------------------------------------------------------------------------------------


10/11/2022 PRIX MARCEL LAURENT
13:50 - Réunion 1 Course 1 - PARIS-VINCENNES
TROT ATTELE - 2100m - 120000.00€


SPECIAL ABONNE VIP ORDRE

 L'INCONTOURNABLE 01

TIERCE:01-04-06
QUARTE image01-04-06-03-13

QUINTE
image
01-04-06-03-13-05

PRONOSTIC PMU ET QUINTÉ+ GRATUIT

FORME : 5-1-13-4

REGULIER : 9-8-6-7

CLASSE : 12-3-10-13

PROGRES : 14-15

SYNTHESE DU SPECIALISTE
5-1-13-4-9-8-6-7-12-3-14

------------------------------------------------------------------------------------------

09/11/2022 GRAND NATIONAL DU TROT PARISTURF
13:55 - Réunion 1 Course 2 - NANTES
TROT ATTELE - 3000m - 90000.00€ - Corde à gauche

SPECIAL ABONNE VIP ORDRE

 L'INCONTOURNABLE 14

TIERCE:14-07-04
QUARTE image14-07-04-13-03

QUINTE
image
14-07-04-13-03-06

PRONOSTIC PMU ET QUINTÉ+ GRATUIT

FORME : 7-14-4-13

REGULIER : 8-3-12-7

CLASSE : 1-9-11-10

PROGRES : 16-15-5

SYNTHESE DU SPECIALISTE
7-14-4-13-8-3-12-1-9-11-10-16-15-5

------------------------------------------------------------------------------------------

08/11/2022 PRIX DE LA SEINE-ET-MARNE
13:50 - Réunion 1 Course 4 - FONTAINEBLEAU
PLAT - 1400m - 50000.00€ - Corde à gauche

SPECIAL ABONNE VIP ORDRE

 L'INCONTOURNABLE 07

TIERCE:07-08-01
QUARTE image07-08-01-09-03

QUINTE
image
07-08-01-09-03-06

PRONOSTIC MP1PMU ET QUINTÉ+ GRATUIT

FORME : 8-9-1-3

REGULIER : 7-4-2-15

CLASSE : 12-6-14-5

PROGRES : 13-10

SYNTHESE DU SPECIALISTE
8-9-1-3-7-4-2-15-12-6-14-5-13-10

------------------------------------------------------------------------------------------

07/11/2022 PRIX DE MAURE DE BRETAGNE
13:50 - Réunion 1 Course 1 - PARIS-VINCENNES
TROT ATTELE - 2700m - 51000.00€ - Corde à gauche

SPECIAL ABONNE VIP ORDRE

 L'INCONTOURNABLE 12

TIERCE:12-09-05
QUARTE image12-09-05-15-07

QUINTE
image
12-09-05-15-04-07

PRONOSTIC MP1PMU ET QUINTÉ+ GRATUIT

FORME : 15-12-9-13

REGULIER : 11-10-14-8

CLASSE : 4-16-3-15

PROGRES : 7-5

SYNTHESE DU SPECIALISTE
15-12-9-13-11-10-14-8-4-16-3-7-5

------------------------------------------------------------------------------------------

06/11/2022 PRIX DU PAYS DE BRAY
15:15 - Réunion 1 Course 4 - DEAUVILLE
PLAT - 1900m - 70000.00€ - Corde à droite

SPECIAL ABONNE VIP ORDRE

 L'INCONTOURNABLE 05

TIERCE:05-02-03
QUARTE image05-02-03-01-07

QUINTE
image
05-02-03-01-07-04

PRONOSTIC MP1PMU ET QUINTÉ+ GRATUIT

FORME : 10-2-4-11

REGULIER : 3-1-5-13

CLASSE : 12-7-9-6

PROGRES : 16-15

SYNTHESE DU SPECIALISTE
10-2-4-11-3-1-5-13-12-7-9-6-16-15

------------------------------------------------------------------------------------------

05/11/2022 PRIX DES POIRIERS
15:15 - Réunion 1 Course 3 - DEAUVILLE
PLAT - 2500m - 50000.00€ - Corde à droite


SPECIAL ABONNE VIP ORDRE

 L'INCONTOURNABLE 07

TIERCE:07-13-02
QUARTE image07-13-02-01-08

QUINTE
image
07-13-02-01-08-10

PRONOSTIC MP1PMU ET QUINTÉ+ GRATUIT

FORME : 8-13-9-1

REGULIER : 2-10-3-6

CLASSE : 13-4-16

PROGRES : 11-12-7

SYNTHESE DU SPECIALISTE
8-13-9-1-2-10-3-6-13-4-16-11-12-7

------------------------------------------------------------------------------------------

04/11/2022 PRIX BARBARA
20:15 - Réunion 1 Course 4 - PARIS-VINCENNES
TROT ATTELE - 2100m - 53000.00€


SPECIAL ABONNE VIP ORDRE

 L'INCONTOURNABLE 06

TIERCE:06-02-05
QUARTE image06-02-05-15-03

QUINTE
image
06-02-05-15-03-04

PRONOSTIC MP1PMU ET QUINTÉ+ GRATUIT

FORME : 2-3-15-7

REGULIER : 4-1-5-6

CLASSE : 9-8

PROGRES : 2-7

SYNTHESE DU SPECIALISTE
2-3-15-7-4-1-5-6-9-8

------------------------------------------------------------------------------------------

03/11/2022 PRIX DE SOULAC
13:50 - Réunion 1 Course 1 - PARIS-VINCENNES
TROT ATTELE - 2700m - 65000.00€ - Corde à gauche



SPECIAL ABONNE VIP ORDRE

 L'INCONTOURNABLE 04

TIERCE:04-08-05
QUARTE image04-08-05-01-03-02

QUINTE
image
04-08-05-03-01-02

PRONOSTIC MP1PMU ET QUINTÉ+ GRATUIT

FORME : 4-8-3-11

REGULIER : 10-9-2-7

CLASSE : 12-16-5

PROGRES : 1-13

SYNTHESE DU SPECIALISTE
4-8-3-11-10-9-2-7-12-16-5-1-13

------------------------------------------------------------------------------------------


02/11/2022 PRIX DE LA VIERGE DE LORETTE
13:50 - Réunion 1 Course 3 - CHANTILLY
PLAT - 1300m - 50000.00€ - Corde à droite

SPECIAL ABONNE VIP ORDRE

 L'INCONTOURNABLE 02

TIERCE:02-09-07
QUARTE image02-09-07-03-01

QUINTE
image
02-09-07-03-01-15

PRONOSTIC MP1PMU ET QUINTÉ+ GRATUIT

FORME : 9-7-3-5

REGULIER : 11-12-4-6

CLASSE : 1-2-8-10

PROGRES : 15-16-14

SYNTHESE DU SPECIALISTE
9-7-3-5-11-12-4-6-1-2-8-10-15-16-14

------------------------------------------------------------------------------------------

1er/11/2022 GRAND PRIX DE LA VILLE DE LAVAL
15:15 - Réunion 1 Course 3 - LAVAL
TROT ATTELE - 2850m - 70000.00€ - Corde à gauche


SPECIAL ABONNE VIP ORDRE

 L'INCONTOURNABLE 07

TIERCE:07-01-06
QUARTE image07-01-06-05-11

QUINTE
image
07-01-06-05-11-08

PRONOSTIC MP1PMU ET QUINTÉ+ GRATUIT

FORME : 6-1-2-11

REGULIER : 5-7-9-15

CLASSE : 13-16-10-3

PROGRES : 12

SYNTHESE DU SPECIALISTE
6-1-2-11-5-7-9-15-13-16-10-3-12

------------------------------------------------------------------------------------------

31/10/2022 PRIX DE L'ELEVAGE
13:50 - Réunion 1 Course 3 - SAINT CLOUD
PLAT - 2500m - 50000.00€ - Corde à gauche

SPECIAL ABONNE VIP ORDRE

 L'INCONTOURNABLE 01

TIERCE:01-02-05
QUARTE image01-02-05-14-09

QUINTE
image
02-01-05-14-09-12

PRONOSTIC MP1PMU ET QUINTÉ+ GRATUIT

FORME : 1-14-15-8

REGULIER : 2-10-4-13

CLASSE : 12-16-9-1

PROGRES : 5-6-7-3

SYNTHESE DU SPECIALISTE
1-14-15-8-2-10-4-13-12-16-9-5-6-7-3

------------------------------------------------------------------------------------------

30/10/2022 PRIX DU CHENE DU COUP DE FOUDRE
15:15 - Réunion 1 Course 6 - CHANTILLY
PLAT - 1600m - 50000.00€ - Corde à droite


SPECIAL ABONNE VIP ORDRE

 L'INCONTOURNABLE 05

TIERCE:05-09-07
QUARTE image05-09-07-02-03

QUINTE
image
07-09-05-03-02-01

PRONOSTIC MP1PMU ET QUINTÉ+ GRATUIT

FORME : 5-12-1-2

REGULIER : 6-3-8-4

CLASSE : 13-9-7

PROGRES : 14

SYNTHESE DU SPECIALISTE
5-12-1-2-6-3-8-4-13-9-7-14

------------------------------------------------------------------------------------------

29/10/2022 PRIX CEREALISTE
15:15 - Réunion 1 Course 3 - COMPIEGNE
HAIES - 3600m - 95000.00€


SPECIAL ABONNE VIP ORDRE

 L'INCONTOURNABLE 12

TIERCE:12-13-01
QUARTE image12-13-01-06-08

QUINTE
image
12-13-01-06-08-02

PRONOSTIC MP1PMU ET QUINTÉ+ GRATUIT

FORME : 1-8-6-12

REGULIER : 3-4-14-7

CLASSE : 9-10-13

PROGRES : 1-6

SYNTHESE DU SPECIALISTE
1-8-6-12-3-4-14-7-9-10-13

------------------------------------------------------------------------------------------

28/10/2022 PRIX ORIONIS
20:15 - Réunion 1 Course 4 - PARIS-VINCENNES
TROT ATTELE - 2850m - 57000.00€ - Corde à gauche


SPECIAL ABONNE VIP ORDRE

 L'INCONTOURNABLE 13

TIERCE:13-08-05
QUARTE image13-08-05-15-14

QUINTE
image
13-08-05-15-14-10

PRONOSTIC MP1PMU ET QUINTÉ+ GRATUIT

FORME : 15-13-8-14

REGULIER : 11-9-6-3

CLASSE : 2-14-12

PROGRES : 16-5

SYNTHESE DU SPECIALISTE
15-13-8-14-11-9-6-3-2-12-16-5

------------------------------------------------------------------------------------------



27/10/2022 PRIX RIEUSSEC
13:50 - Réunion 1 Course 1 - LONGCHAMP
PLAT - 2800m - 50000.00€ - Corde à droite


SPECIAL ABONNE VIP ORDRE

 L'INCONTOURNABLE 10

TIERCE:10-05-06
QUARTE image10-05-06-01-14

QUINTE
image
10-05-06-01-14-15

PRONOSTIC MP1PMU ET QUINTÉ+ GRATUIT

FORME : 5-4-6-1

REGULIER : 2-10-7-11

CLASSE : 3-15-14-12

PROGRES : 8-9

SYNTHESE DU SPECIALISTE
5-4-6-1-2-10-7-11-3-15-14-12-8-9

------------------------------------------------------------------------------------------

26/10/2022 PRIX DE LA PORTE BRANCION
13:50 - Réunion 1 Course 1 - ENGHIEN
TROT ATTELE - 2150m - 51000.00€


SPECIAL ABONNE VIP ORDRE

 L'INCONTOURNABLE 05

TIERCE:05-03-11
QUARTE image05-03-11-16-14

QUINTE
image
05-11-03-16-06-14

PRONOSTIC MP1PMU ET QUINTÉ+ GRATUIT

FORME : 6-16-1-2

REGULIER : 5-3-9-11

CLASSE : 4-14-15

PROGRES : 7

SYNTHESE DU SPECIALISTE
6-16-1-2-5-3-9-11-4-14-15-7

------------------------------------------------------------------------------------------

25/10/2022 PRIX SANTO PIETRO
13:50 - Réunion 1 Course 1 - AUTEUIL
HAIES - 3600m - 95000.00€


SPECIAL ABONNE VIP ORDRE

 L'INCONTOURNABLE 09

TIERCE:09-07-06
QUARTE image09-07-06-01-03

QUINTE
image
09-07-06-01-08-14

PRONOSTIC MP1PMU ET QUINTÉ+ GRATUIT

FORME : 1-9-5-3

REGULIER : 7-6-2-8

CLASSE : 14-4-11-13

PROGRES : 10-12

SYNTHESE DU SPECIALISTE
1-9-5-3-7-6-2-8-14-4-11-13-10-12

------------------------------------------------------------------------------------------

24/10/2022 HANDICAP DE MARSEILLE
13:50 - Réunion 1 Course 4 - MARSEILLE BORELY
PLAT - 2000m - 50000.00€ - Corde à gauche

SPECIAL ABONNE VIP ORDRE

 L'INCONTOURNABLE 07

TIERCE:07-03-09
QUARTE image07-03-09-13-06

QUINTE
image
07-03-13-06-09-02

PRONOSTIC MP1PMU ET QUINTÉ+ GRATUIT

FORME : 7-13-8-2

REGULIER : 3-5-15-6

CLASSE : 4-10-9

PROGRES : 16-12

SYNTHESE DU SPECIALISTE
7-13-8-2-3-5-15-6-4-10-9-16-12

------------------------------------------------------------------------------------------

23/10/2022 PRIX ''LE PARISIEN'' (PRIX DE BOTZARIS)
15:15 - Réunion 1 Course 4 - LONGCHAMP
PLAT - 2200m - 50000.00€ - Corde à droite

SPECIAL ABONNE VIP ORDRE

 L'INCONTOURNABLE 07

TIERCE:07-12-01
QUARTE image07-12-01-08-15

QUINTE
image
07-01-12-08-10-15

PRONOSTIC MP1PMU ET QUINTÉ+ GRATUIT

FORME : 12-7-8-5

REGULIER : 10-4-3-1

CLASSE : 9-6-2-11

PROGRES : 13-16-14

SYNTHESE DU SPECIALISTE
12-7-8-5-10-4-3-1-9-6-2-11-13-16-14

------------------------------------------------------------------------------------------

22/10/2022 PRIX DE VERSAILLES
15:15 - Réunion 1 Course 4 - SAINT CLOUD
PLAT - 1600m - 55000.00€ - Corde à gauche

SPECIAL ABONNE VIP ORDRE

 L'INCONTOURNABLE 06

TIERCE:06-03-13
QUARTE image06-03-13-09-15

QUINTE
image
06-03-13-09-15-04

PRONOSTIC MP1PMU ET QUINTÉ+ GRATUIT

FORME : 9-6-5-4

REGULIER : 1-10-3-13

CLASSE : 2-12-16-8

PROGRES : 15

SYNTHESE DU SPECIALISTE
9-6-5-4-1-10-3-13-2-12-16-8-15

------------------------------------------------------------------------------------------

21/10/2022 PRIX THEMIS
20:15 - Réunion 1 Course 3 - PARIS-VINCENNES
TROT ATTELE - 2850m - 65000.00€ - Corde à gauche

SPECIAL ABONNE VIP ORDRE

 L'INCONTOURNABLE 03

TIERCE:03-07-01
QUARTE image03-07-01-02-14

QUINTE
image
03-07-01-02-14-04

PRONOSTIC MP1PMU ET QUINTÉ+ GRATUIT

FORME : 3-2-7-11

REGULIER : 14-13-1-4

CLASSE : 5-12-3

PROGRES : 10-16-15

SYNTHESE DU SPECIALISTE
3-2-7-11-14-13-1-4-5-12-10-16-15

------------------------------------------------------------------------------------------

20/10/2022 PRIX DU PORT DU HAVRE
13:50 - Réunion 1 Course 4 - DEAUVILLE
PLAT - 1200m - 50000.00€

SPECIAL ABONNE VIP ORDRE

 L'INCONTOURNABLE 07

TIERCE:07-13-14
QUARTE image07-13-14-08-11

QUINTE
image
07-13-14-08-11-10

PRONOSTIC MP1PMU ET QUINTÉ+ GRATUIT

FORME : 7-10-8-1

REGULIER : 9-3-2-7

CLASSE : 12-6-4-5

PROGRES : 14-13

SYNTHESE DU SPECIALISTE
7-10-8-1-9-3-2-12-6-4-5-14-13

------------------------------------------------------------------------------------------

19/10/2022 GRAND NATIONAL DU TROT
13:50 - Réunion 1 Course 1 - FEURS
TROT ATTELE - 2850m - 90000.00€ - Corde à gauche

SPECIAL ABONNE VIP ORDRE

 L'INCONTOURNABLE 13

TIERCE:13-11-07
QUARTE image13-11-07-14-03

QUINTE
image
13-11-07-14-03-02

PRONOSTIC MP1PMU ET QUINTÉ+ GRATUIT

FORME : 12-14-13-4

REGULIER : 7-11-9-12

CLASSE : 10-3-1-4

PROGRES : 8-2

SYNTHESE DU SPECIALISTE
12-14-13-4-7-11-9-10-3-1-8-2

------------------------------------------------------------------------------------------

18/10/2022 PRIX ALGORAH
13:50 - Réunion 1 Course 1 - PARIS-VINCENNES
TROT ATTELE - 2100m - 57000.00€

SPECIAL ABONNE VIP ORDRE

 L'INCONTOURNABLE 06

TIERCE:06-04-02
QUARTE image06-04-02-14-11

QUINTE
image
06-04-02-14-11-01

PRONOSTIC MP1PMU ET QUINTÉ+ GRATUIT

FORME : 8-6-11-14

REGULIER : 13-1-4-9

CLASSE : 2-16-5

PROGRES : 10-12

SYNTHESE DU SPECIALISTE
8-6-11-14-13-1-4-9-2-16-5-10-12

------------------------------------------------------------------------------------------

17/10/2022 PRIX "AUX COURSES LES JEUNES" (PRIX DES EQUIDAYS)
13:50 - Réunion 1 Course 1 - CLAIREFONTAINE
PLAT - 2400m - 55000.00€ - Corde à droite

SPECIAL ABONNE VIP ORDRE

 L'INCONTOURNABLE 01

TIERCE:01-08-05
QUARTE image01-08-05-11-13

QUINTE
image
01-08-05-11-13-04

PRONOSTIC MP1PMU ET QUINTÉ+ GRATUIT

FORME : 11-8-3-15

REGULIER : 14-10-16-1

CLASSE : 13-12-5-6

PROGRES : 3-4

SYNTHESE DU SPECIALISTE
11-8-3-15-14-10-16-1-13-12-5-6-4

------------------------------------------------------------------------------------------

16/10/2022 PRIX DES ARENES DE LUTECE
15:15 - Réunion 1 Course 4 - LONGCHAMP
PLAT - 1600m - 50000.00€ - Corde à droite

SPECIAL ABONNE VIP ORDRE

 L'INCONTOURNABLE 02

TIERCE:02-14-07
QUARTE image02-14-07-09-08

QUINTE
image
02-14-07-09-08-03

PRONOSTIC MP1PMU ET QUINTÉ+ GRATUIT

FORME : 9-2-4-6

REGULIER : 1-5-3-9

CLASSE : 11-8-14-7

PROGRES : 10

SYNTHESE DU SPECIALISTE
9-2-4-6-1-5-3-11-8-14-7-10

------------------------------------------------------------------------------------------

15/10/2022 PRIX DU PRINCE D'ECOUEN
15:15 - Réunion 1 Course 4 - AUTEUIL
HAIES - 3900m - 95000.00€

SPECIAL ABONNE VIP ORDRE

 L'INCONTOURNABLE 12

TIERCE:12-11-14
QUARTE image12-11-14-05-16

QUINTE
image
12-11-14-05-16-03

PRONOSTIC MP1PMU ET QUINTÉ+ GRATUIT

FORME : 16-11-5-1

REGULIER : 4-14-12-16

CLASSE : 3-2-7-6

PROGRES : 9-15

SYNTHESE DU SPECIALISTE
16-11-5-1-4-14-12-3-2-7-6-9-15

------------------------------------------------------------------------------------------

14/10/2022 CHAMPIONNAT EUROPEEN DES 5 ANS
20:15 - Réunion 1 Course 4 - PARIS-VINCENNES
TROT ATTELE - 2100m - 100000.00€

SPECIAL ABONNE VIP ORDRE

 L'INCONTOURNABLE 13

TIERCE:13-09-17
QUARTE image13-09-17-11-14
QUINTE
image
13-09-17-11-14-05

PRONOSTIC MP1PMU ET QUINTÉ+ GRATUIT

FORME : 9-4-11-13

REGULIER : 17-15-14-9

CLASSE : 7-12-8-6

PROGRES : 5-1-2

SYNTHESE DU SPECIALISTE
9-4-11-13-17-15-14-7-12-8-6-5-1-2

------------------------------------------------------------------------------------------

13/10/2022 PRIX CARRUS
13:50 - Réunion 1 Course 1 - LONGCHAMP
PLAT - 1950m - 50000.00€ - Corde à droite


SPECIAL ABONNE VIP ORDRE

 L'INCONTOURNABLE 02

TIERCE:02-16-10
QUARTE image02-16-10-07-03
QUINTE
image
02-16-10-07-14-03

PRONOSTIC MP1PMU ET QUINTÉ+ GRATUIT

FORME : 7-14-2-16

REGULIER : 6-9-1-10

CLASSE : 4-12-8-15

PROGRES : 11-5-13

SYNTHESE DU SPECIALISTE
7-14-2-16-6-9-1-10-4-12-8-15-11-5-13

------------------------------------------------------------------------------------------

12/10/2022 PRIX DES GOBELINS
13:50 - Réunion 1 Course 1 - ENGHIEN
TROT ATTELE - 2875m - 57000.00€ - Corde à gauche


SPECIAL ABONNE VIP ORDRE

 L'INCONTOURNABLE 14

TIERCE:14-06-01
QUARTE image14-01-16-06-08
QUINTE
image
14-06-01-16-08-05

PRONOSTIC MP1PMU ET QUINTÉ+ GRATUIT

FORME : 1-16-8-9

REGULIER : 14-12-15-16

CLASSE : 13-11-6-7

PROGRES : 3-4

SYNTHESE DU SPECIALISTE
1-16-8-9-14-12-15-13-11-6-7-3-4

------------------------------------------------------------------------------------------

11/10/2022 PRIX DU VAL D'OR
13:50 - Réunion 1 Course 1 - SAINT CLOUD
PLAT - 2400m - 50000.00€ - Corde à gauche

SPECIAL ABONNE VIP ORDRE

 L'INCONTOURNABLE 06

TIERCE:06-09-15
QUARTE image06-09-15-03-08
QUINTE
image
06-09-15-03-08-16

PRONOSTIC MP1PMU ET QUINTÉ+ GRATUIT

FORME : 3-6-4-2

REGULIER : 1-9-8-5

CLASSE : 16-7-15-12

PROGRES : 11

SYNTHESE DU SPECIALISTE
3-6-4-2-1-9-8-5-16-7-15-12-11

------------------------------------------------------------------------------------------

10/10/2022 PRIX DU PONT DES ARTS
13:50 - Réunion 1 Course 1 - ENGHIEN
TROT ATTELE - 2875m - 57000.00€ - Corde à gauche

SPECIAL ABONNE VIP ORDRE

 L'INCONTOURNABLE 09

TIERCE:09-06-13
QUARTE image09-06-13-16-05
QUINTE
image
09-06-13-16-05-10

FORME : 6-8-16-3

REGULIER : 15-10-14-6

CLASSE : 13-7-9-1

PROGRES : 5

SYNTHESE DU SPECIALISTE
6-8-16-3-15-10-14-13-7-9-1-5

------------------------------------------------------------------------------------------

09/10/2022 PRIX ANDRE ADELE
15:15 - Réunion 1 Course 3 - AUTEUIL
STEEPLE CHASE - 3700m - 95000.00€

SPECIAL ABONNE VIP ORDRE

 L'INCONTOURNABLE 14

TIERCE:14-18-08
QUARTE image14-18-08-09-04
QUINTE
image
14-18-08-09-04-10

PRONOSTIC MP1PMU ET QUINTÉ+ GRATUIT

FORME : 8-4-9-5

REGULIER : 11-10-3-4

CLASSE : 2-14-18-1

PROGRES : 13

SYNTHESE DU SPECIALISTE
8-4-9-5-11-10-3-2-14-18-1-13

------------------------------------------------------------------------------------------

08/10/2022 PRIX D'AUTOMNE
15:15 - Réunion 1 Course 3 - CAEN
TROT ATTELE - 2450m - 38000.00€ - Corde à droite

SPECIAL ABONNE VIP ORDRE

 L'INCONTOURNABLE 02

TIERCE:02-03-06
QUARTE image02-03-06-08-07
QUINTE
image
02-03-06-08-07-01

PRONOSTIC MP1PMU ET QUINTÉ+ GRATUIT

FORME : 2-3-7-8

REGULIER : 13-6-14-2

CLASSE : 10-1-9-6

PROGRES : 16-11

SYNTHESE DU SPECIALISTE
2-3-7-8-13-6-14-10-1-9-16-11

------------------------------------------------------------------------------------------

07/10/2022 PRIX CHARLEY MILLS
20:15 - Réunion 1 Course 3 - PARIS-VINCENNES
TROT ATTELE - 2700m - 75000.00€ - Corde à gauche

SPECIAL ABONNE VIP ORDRE

 L'INCONTOURNABLE 01

TIERCE:01-12-14
QUARTE image01-12-14-07-05
QUINTE
image
01-12-14-05-07-11

PRONOSTIC MP1PMU ET QUINTÉ+ GRATUIT

FORME : 11-10-1-14

REGULIER : 7-5-12-11

CLASSE : 2-13-11-10

PROGRES : 8-4-9-6

SYNTHESE DU SPECIALISTE
11-10-1-14-7-5-12-2-13-8-4-9-6

------------------------------------------------------------------------------------------

06/10/2022 PRIX DE SAINT-PAIR-DU-MONT
13:50 - Réunion 1 Course 1 - SAINT CLOUD
PLAT - 2000m - 55000.00€ - Corde à gauche

SPECIAL ABONNE VIP ORDRE

 L'INCONTOURNABLE 06

TIERCE:06-16-08
QUARTE image06-16-08-01-04
QUINTE
image
06-08-16-01-04-05

PRONOSTIC MP1PMU ET QUINTÉ+ GRATUIT

FORME : 6-1-14-9

REGULIER : 8-4-16-6

CLASSE : 7-2-12-10

PROGRES : 11-13-3

SYNTHESE DU SPECIALISTE
6-1-14-9-8-4-16-7-2-12-10-11-13-3

------------------------------------------------------------------------------------------

05/10/2022 GRAND PRIX ANJOU-MAINE
13:50 - Réunion 1 Course 1 - LAVAL
TROT ATTELE - 2850m - 100000.00€ - Corde à gauche

SPECIAL ABONNE VIP ORDRE

 L'INCONTOURNABLE 14

TIERCE:14-01-04
QUARTE image14-01-04-12-05
QUINTE
image
14-01-04-12-05-06

PRONOSTIC MP1PMU ET QUINTÉ+ GRATUIT

FORME : 14-12-1-2

REGULIER : 13-16-5-14

CLASSE : 11-4-10-12

PROGRES : 9-7-6

SYNTHESE DU SPECIALISTE
14-12-1-2-13-16-5-11-4-10-9-7-6

------------------------------------------------------------------------------------------

04/10/2022 PRIX GUILLAUME DE PRACOMTAL
13:50 - Réunion 1 Course 1 - AUTEUIL
HAIES - 3600m - 95000.00

SPECIAL ABONNE VIP ORDRE

 L'INCONTOURNABLE 07

TIERCE:07-02-13
QUARTE image07-02-13-04-15
QUINTE
image
02-07-04-15-01-13

PRONOSTIC MP1PMU ET QUINTÉ+ GRATUIT

FORME : 7-1-16-6

REGULIER : 15-2-3-7

CLASSE : 10-11-13

PROGRES : 7-6

SYNTHESE DU SPECIALISTE
7-1-16-6-15-2-3-10-11-13

------------------------------------------------------------------------------------------

03/10/2022 PRIX DE SAINT-CHAMOND
13:50 - Réunion 1 Course 1 - ENGHIEN
TROT ATTELE - 2150m - 57000.00€

SPECIAL ABONNE VIP ORDRE

 L'INCONTOURNABLE 01

TIERCE:01-02-09
QUARTE image01-02-09-07-05
QUINTE
image
01-02-09-07-05-12

PRONOSTIC MP1PMU ET QUINTÉ+ GRATUIT

FORME : 5-2-1-7

REGULIER : 14-3-12-5

CLASSE : 6-9-8-14

PROGRES : 10

SYNTHESE DU SPECIALISTE
5-2-1-7-14-3-12-6-9-8-10

------------------------------------------------------------------------------------------

02/10/2022 QATAR PRIX DE L'ARC DE TRIOMPHE
16:05 - Réunion 1 Course 4 - LONGCHAMP
PLAT - 2400m - 5000000.00€ - Corde à droite

SPECIAL ABONNE VIP ORDRE

 L'INCONTOURNABLE 14

TIERCE:14-15-02
QUARTE image14-15-02-17-16
QUINTE
image
14-15-02-17-16-13

PRONOSTIC MP1PMU ET QUINTÉ+ GRATUIT

FORME : 14-17-15-20

REGULIER : 13-2-16-20

CLASSE : 18-12-8-14

PROGRES : 4

SYNTHESE DU SPECIALISTE
14-17-15-20-13-2-16-18-12-8-4

------------------------------------------------------------------------------------------

1er/10/2022 -ParisLongchamp- Qatar Prix de la Place des Vosges
 Plat: 2500
 m R1 C4

SPECIAL ABONNE VIP ORDRE

 L'INCONTOURNABLE 15

TIERCE:15-04-17
QUARTE image15-04-17-18-03
QUINTE
image
15-04-17-18-03-11

PRONOSTIC MP1PMU ET QUINTÉ+ GRATUIT

FORME : 18-4-3-6

REGULIER : 10-2-15-18

CLASSE : 1-7-5-4

PROGRES : 17-8-14

SYNTHESE DU SPECIALISTE
18-4-3-6-10-2-15-1-7-5-17-8-14

------------------------------------------------------------------------------------------

30/09/2022 PRIX ELLA
20:15 - Réunion 1 Course 3 - PARIS-VINCENNES
TROT ATTELE - 2850m - 44000.00€ - Corde à gauche

SPECIAL ABONNE VIP ORDRE

 L'INCONTOURNABLE 14

TIERCE:14-11-12
QUARTE image14-11-12-09-05
QUINTE
image
14
-11-12-09-05-15

PRONOSTIC MP1PMU ET QUINTÉ+ GRATUIT

FORME : 9-12-5-14

REGULIER : 3-11-15-9

CLASSE : 16-13-9-12

PROGRES : 10-6-4

SYNTHESE DU SPECIALISTE
9-12-5-14-3-11-15-16-13-10-6-4

------------------------------------------------------------------------------------------

29/09/2022 PRIX DE LA GALERIE DES BATAILLES
13:50 - Réunion 1 Course 2 - CHANTILLY
PLAT - 1600m - 50000.00€ - Corde à droite

SPECIAL ABONNE VIP ORDRE

 L'INCONTOURNABLE 11

TIERCE:11-07-16
QUARTE image11-07-16-02-12
QUINTE
image
11-07-16-02-12-06

PRONOSTIC MP1PMU ET QUINTÉ+ GRATUIT

FORME : 10-15-2-11

REGULIER : 3-7-13-10

CLASSE : 4-14-16-15

PROGRES : 12-1

SYNTHESE DU SPECIALISTE
10-15-2-11-3-7-13-4-14-16-12-1

------------------------------------------------------------------------------------------

28/09/2022 GRAND NATIONAL DU TROT
13:50 - Réunion 1 Course 1 - VIRE
TROT ATTELE - 3475m - 90000.00€ - Corde à droite

SPECIAL ABONNE VIP ORDRE

 L'INCONTOURNABLE 11

TIERCE:11-05-03
QUARTE image11-05-03-01-13
QUINTE
image
11-05-03-01-13-14

PRONOSTIC MP1PMU ET QUINTÉ+ GRATUIT

FORME : 11-5-14-13

REGULIER : 1-16-3-11

CLASSE : 8-2-12

PROGRES : 15-9-10

SYNTHESE DU SPECIALISTE
11-5-14-13-1-16-3-8-2-12-15-9-10

------------------------------------------------------------------------------------------

27/09/2022 PRIX DE BEAUNE
13:50 - Réunion 1 Course 1 - COMPIEGNE
HAIES - 3800m - 95000.00€

SPECIAL ABONNE VIP ORDRE

 L'INCONTOURNABLE 03

TIERCE:03-16-10
QUARTE image03-16-10-02-05
QUINTE
image
03-16-10-02-05-08

PRONOSTIC MP1PMU ET QUINTÉ+ GRATUIT

FORME : 3-2-1-4

REGULIER : 16-9-6-3

CLASSE : 10-8-7-1

PROGRES : 5-11

SYNTHESE DU SPECIALISTE
3-2-1-4-16-9-6-10-7-8-5-11

------------------------------------------------------------------------------------------

26/09/2022 GRAND PRIX DE TROT DE LYON
13:50 - Réunion 1 Course 4 - LYON PARILLY
TROT ATTELE - 2850m - 33000.00€ - Corde à gauche

SPECIAL ABONNE VIP ORDRE

 L'INCONTOURNABLE 16

TIERCE:16-10-11
QUARTE image16-10-11-05-08
QUINTE
image
16-10-11-05-08-09

PRONOSTIC MP1PMU ET QUINTÉ+ GRATUIT

FORME : 16-14-7-2

REGULIER : 6-11-12-14

CLASSE : 5-13-8-10

PROGRES : 15

SYNTHESE DU SPECIALISTE
16-14-7-2-6-11-12-5-13-8-10-15

------------------------------------------------------------------------------------------

25/09/2022 GRAND PRIX DU PORTUGAL (PRIX D'ANCENIS)
15:15 - Réunion 1 Course 4 - PARIS-VINCENNES
TROT ATTELE - 2850m - 65000.00€ - Corde à gauche

SPECIAL ABONNE VIP ORDRE

 L'INCONTOURNABLE 13

TIERCE:13-04-06
QUARTE image13-04-06-03-02
QUINTE
image
13-04-06-03-02-09

PRONOSTIC MP1PMU ET QUINTÉ+ GRATUIT

FORME : 13-14-16-15

REGULIER : 4-11-3-13

CLASSE : 12-6-8-16

PROGRES : 5

SYNTHESE DU SPECIALISTE
13-14-16-15-4-11-3-12-6-8-5

------------------------------------------------------------------------------------------

24/09/2022 PRIX VIOLON II
15:15 - Réunion 1 Course 3 - AUTEUIL
STEEPLE CHASE - 4400m - 95000.00€

SPECIAL ABONNE VIP ORDRE

 L'INCONTOURNABLE 12

TIERCE:12-04-16
QUARTE image12-04-16-01-15
QUINTE
image
12-04-16-01-15-09

PRONOSTIC MP1PMU ET QUINTÉ+ GRATUIT

FORME : 12-14-2-10

REGULIER : 1-16-4-12

CLASSE : 15-13

PROGRES : 8-11-7 

SYNTHESE DU SPECIALISTE
12-14-2-10-1-4-15-13-8-11-7

------------------------------------------------------------------------------------------

23/09/2022 PRIX CLEOMEDE
20:15 - Réunion 1 Course 3 - PARIS-VINCENNES
TROT ATTELE - 2850m - 49000.00€ - Corde à gauche

SPECIAL ABONNE VIP ORDRE

 L'INCONTOURNABLE 11

TIERCE:11-14-13
QUARTE image11-14-13-12-02
QUINTE
image
11-14-13-12-02-05

PRONOSTIC MP1PMU ET QUINTÉ+ GRATUIT

FORME : 11-13-12-14

REGULIER : 8-5-9-11

CLASSE : 2-3-12

PROGRES : 7-6-10

SYNTHESE DU SPECIALISTE
11-13-12-14-8-5-9-2-3-7-6-10

------------------------------------------------------------------------------------------

22/09/2022 - Prix Bernard Le Quellec
13:50 - Réunion 1 Course 1 - Vincennes
TROT ATTELE - 2700m - 65000.00€

SPECIAL ABONNE VIP ORDRE

 L'INCONTOURNABLE 11

TIERCE:11-16-14
QUARTE image11-16-14-05-01
QUINTE
image
11-16-14-05-01-10

PRONOSTIC MP1PMU ET QUINTÉ+ GRATUIT

FORME : 14-11-5-12

REGULIER : 16-2-4-1

CLASSE : 6-8-4-14

PROGRES : 3-9

SYNTHESE DU SPECIALISTE
14-11-5-12-16-2-4-1-6-8-3-9

------------------------------------------------------------------------------------------

21/09/2022 PX CREDIT AGRICOLE - COEUR DE THIERACHE
13:50 - Réunion 1 Course 4 - LA CAPELLE
TROT ATTELE - 2700m - 32000.00€

SPECIAL ABONNE VIP ORDRE

 L'INCONTOURNABLE 15

TIERCE:15-06-01
QUARTE image15-06-01-08-05
QUINTE
image
15-06-01-08-05-11

PRONOSTIC MP1PMU ET QUINTÉ+ GRATUIT

FORME : 8-6-2-1

REGULIER : 12-7-4-6

CLASSE : 5-15-10-1

PROGRES : 13-11

SYNTHESE DU SPECIALISTE
8-6-2-1-12-7-4-5-15-10-13-11

------------------------------------------------------------------------------------------

20/09/2022 PRIX CALABRAIS
13:50 - Réunion 1 Course 2 - AUTEUIL
HAIES - 3600m - 95000.00€

SPECIAL ABONNE VIP ORDRE

 L'INCONTOURNABLE 10

TIERCE:10-05-13
QUARTE image10-05-13-03-06
QUINTE
image
10-05-13-03-06-01

PRONOSTIC MP1PMU ET QUINTÉ+ GRATUIT

FORME : 3-6-2-7

REGULIER : 4-9-1-8

CLASSE : 13-5-11-14

PROGRES : 12-11-10

SYNTHESE DU SPECIALISTE
3-6-7-2-4-9-1-8-13-5-11-14-12-10

------------------------------------------------------------------------------------------

19/09/2022 PRIX JOUVENCE
13:50 - Réunion 1 Course 1 - SAINT CLOUD
PLAT - 3000m - 50000.00€ - Corde à gauche

SPECIAL ABONNE VIP ORDRE

 L'INCONTOURNABLE 07

TIERCE:07-16-08
QUARTE image07-16-08-03-02
QUINTE
image
07-16-08-03-02-06

PRONOSTIC MP1PMU ET QUINTÉ+ GRATUIT

FORME : 7-2-16-8

REGULIER : 14-1-5-3

CLASSE : 13-15-4-7

PROGRES : 14-16

SYNTHESE DU SPECIALISTE
7-2-16-8-14-1-5-3-13-15-4

------------------------------------------------------------------------------------------

18/09/2022 CRITERIUM DES 5 ANS
15:15 - Réunion 1 Course 4 - PARIS-VINCENNES
TROT ATTELE - 3000m - 300000.00€ - Corde à gauche

SPECIAL ABONNE VIP ORDRE

 L'INCONTOURNABLE 16

TIERCE:16-13-07
QUARTE image16-13-07-15-12
QUINTE
image
16-13-07-15-12-11

PRONOSTIC MP1PMU ET QUINTÉ+ GRATUIT

FORME : 15-16-7-10

REGULIER : 6-4-12-5

CLASSE : 13-3-15-16

PROGRES : 1-9-14

SYNTHESE DU SPECIALISTE
15-16-7-10-6-4-12-5-13-3-1-9-14

------------------------------------------------------------------------------------------

17/09/2022 PRIX DU CABINET DES LIVRES
15:15 - Réunion 1 Course 3 - CHANTILLY
PLAT - 1200m - 50000.00€

SPECIAL ABONNE VIP ORDRE

 L'INCONTOURNABLE 02

TIERCE:02-07-01
QUARTE image02-07-01-05-09
QUINTE
image
02-07-01-05-09-08

PRONOSTIC MP1PMU ET QUINTÉ+ GRATUIT

FORME : 3-5-1-2

REGULIER : 7-15-11-13

CLASSE : 8-9-3

PROGRES : 6-4-16

SYNTHESE DU SPECIALISTE
3-5-1-2-7-15-11-13-8-9-6-4-16

------------------------------------------------------------------------------------------

16/09/2022 PRIX OPHELIA
20:15 - Réunion 1 Course 3 - PARIS-VINCENNES
TROT ATTELE - 2850m - 57000.00€ - Corde à gauche

SPECIAL ABONNE VIP ORDRE

 L'INCONTOURNABLE 15

TIERCE:15-05-03
QUARTE image15-05-03-06-01
QUINTE
image
15-05-03-01-06-08

PRONOSTIC MP1PMU ET QUINTÉ+ GRATUIT

FORME : 6-1-12-9

REGULIER : 7-15-4-5

CLASSE : 13-14-11-8

PROGRES : 1-7

SYNTHESE DU SPECIALISTE
6-1-12-9-7-15-4-5-13-14-11-8

------------------------------------------------------------------------------------------

15/09/2022 PRIX DE LA TABLE
18:20 - Réunion 1 Course 6 - LONGCHAMP
PLAT - 2000m - 50000.00€ - Corde à droit

SPECIAL ABONNE VIP ORDRE

 L'INCONTOURNABLE 06

TIERCE:06-07-10
QUARTE image06-07-10-11-09
QUINTE
image
06-07-10-11-09-01

PRONOSTIC MP1PMU ET QUINTÉ+ GRATUIT

FORME : 11-1-5-13

REGULIER : 9-8-4-6

CLASSE : 7-10-13-16

PROGRES : 12

SYNTHESE DU SPECIALISTE
11-1-5-13-9-8-4-6-7-10-13-16-12

------------------------------------------------------------------------------------------

14/09/2022 PRIX DE COMPIEGNE CITE IMPERIALE
13:50 - Réunion 1 Course 1 - COMPIEGNE
PLAT - 1600m - 55000.00€ - Corde à gauche

SPECIAL ABONNE VIP ORDRE

 L'INCONTOURNABLE 09

TIERCE:09-07-06
QUARTE image09-06-07-02-13
QUINTE
image
09-07-06-02-13-16

PRONOSTIC MP1PMU ET QUINTÉ+ GRATUIT

FORME : 9-2-6-7

REGULIER : 10-12-3-8

CLASSE : 11-13-5-6

PROGRES : 6-9-14

SYNTHESE DU SPECIALISTE
9-2-6-7-10-12-3-8-11-13-5-14

------------------------------------------------------------------------------------------

13/09/2022 PRIX ALAIN ET GILLES DE GOULAINE
13:50 - Réunion 1 Course 2 - AUTEUIL
HAIES - 3600m - 95000.00€

SPECIAL ABONNE VIP ORDRE

 L'INCONTOURNABLE 07

TIERCE:07-06-01
QUARTE image07-06-01-09-13
QUINTE
image
07-06-01-09-13-16

PRONOSTIC MP1PMU ET QUINTÉ+ GRATUIT

FORME : 12-13-6-7

REGULIER : 16-9-1-13

CLASSE : 5-15-4-12

PROGRES : 2-8

SYNTHESE DU SPECIALISTE
12-13-6-7-16-9-1-5-15-4-2-8

------------------------------------------------------------------------------------------

12/09/2022 GRAND PRIX JEAN DUMOUCH
13:50 - Réunion 1 Course 4 - BEAUMONT DE LOMAGNE
TROT ATTELE - 2550m - 37000.00€ - Corde à droite

SPECIAL ABONNE VIP ORDRE

 L'INCONTOURNABLE 11

TIERCE:11-04-08
QUARTE image11-04-08-09-06
QUINTE
image
11-04-08-09-06-05

PRONOSTIC MP1PMU ET QUINTÉ+ GRATUIT

FORME : 11-8-9-5

REGULIER : 7-1-4-11

CLASSE : 6-14-2-10

PROGRES : 3-16-12

SYNTHESE DU SPECIALISTE
11-8-9-5-7-1-4-6-14-2-10-3-16-12

------------------------------------------------------------------------------------------

11/09/2022 QATAR HANDICAP DES ARC TRIALS
15:15 - Réunion 1 Course 4 - LONGCHAMP
PLAT - 1400m - 50000.00€ - Corde à droite

SPECIAL ABONNE VIP ORDRE

 L'INCONTOURNABLE 11

TIERCE:11-15-01
QUARTE image11-15-01-08-07
QUINTE
image
11-15-01-10-07-03

PRONOSTIC MP1PMU ET QUINTÉ+ GRATUIT

FORME : 3-5-8-11

REGULIER : 14-10-7-9

CLASSE : 2-13-6-4

PROGRES : 1-15

SYNTHESE DU SPECIALISTE
3-5-8-11-14-10-7-9-2-13-6-4-1-15

------------------------------------------------------------------------------------------

10/09/2022 PRIX D'EAUBONNE
15:15 - Réunion 1 Course 3 - PARIS-VINCENNES
TROT ATTELE - 2100m - 49000.00€

SPECIAL ABONNE VIP ORDRE

 L'INCONTOURNABLE 07

TIERCE:07-13-05
QUARTE image07-13-05-11-02
QUINTE
image
07-13-05-11-02-08

PRONOSTIC MP1PMU ET QUINTÉ+ GRATUIT

FORME : 5-11-6-13

REGULIER : 7-4-12-5

CLASSE : 2-10-9-13

PROGRES : 1

SYNTHESE DU SPECIALISTE
5-11-6-13-7-4-12-2-10-9-1

------------------------------------------------------------------------------------------

09/09/2022 PRIX ADELINDA
20:15 - Réunion 1 Course 3 - PARIS-VINCENNES
TROT ATTELE - 2850m - 57000.00€ - Corde à gauche

SPECIAL ABONNE VIP ORDRE

 L'INCONTOURNABLE 11

TIERCE:11-08-10
QUARTE image11-08-10-06-01
QUINTE
image
11-08-10-06-01-07

PRONOSTIC MP1PMU ET QUINTÉ+ GRATUIT

FORME : 7-10-6-1

REGULIER : 11-2-5-7

CLASSE : 12-9-8-10

PROGRES : 14-4

SYNTHESE DU SPECIALISTE
7-10-6-1-11-2-5-12-9-8-14-4

------------------------------------------------------------------------------------------

08/09/2022 PRIX DE LONGCHAMP
18:20 - Réunion 1 Course 5 - LONGCHAMP
PLAT - 2200m - 55000.00€ - Corde à droite

SPECIAL ABONNE VIP ORDRE

 L'INCONTOURNABLE 03

TIERCE:03-06-04
QUARTE image03-06-04-11-16
QUINTE
image
03-06-04-11-16-02

PRONOSTIC MP1PMU ET QUINTÉ+ GRATUIT

FORME : 3-2-1-4

REGULIER : 11-9-8-6

CLASSE : 10-5-14-16

PROGRES : 13-12

SYNTHESE DU SPECIALISTE
3-2-1-4-11-9-8-6-10-5-14-16-13-12

------------------------------------------------------------------------------------------

07/09/2022 GRAND NATIONAL DU TROT PARIS-TURF
13:50 - Réunion 1 Course 1 - MESLAY DU MAINE
TROT ATTELE - 2875m - 90000.00€ - Corde à droite

SPECIAL ABONNE VIP ORDRE

 L'INCONTOURNABLE 11

TIERCE:11-06-03
QUARTE image11-06-03-02-01
QUINTE
image
11-06-03-02-01-08

PRONOSTIC MP1PMU ET QUINTÉ+ GRATUIT

FORME : 12-11-1-6

REGULIER : 3-2-14-13

CLASSE : 5-9-11-8

PROGRES : 6-11-3-2

SYNTHESE DU SPECIALISTE
12-11-1-6-3-2-14-13-5-9-8

------------------------------------------------------------------------------------------

06/09/2022 PRIX JEAN BART
13:50 - Réunion 1 Course 4 - AUTEUIL
HAIES - 3600m - 95000.00€

SPECIAL ABONNE VIP ORDRE

 L'INCONTOURNABLE 07

TIERCE:07-09-05
QUARTE image07-09-05-11-15
QUINTE
image
07-09-11-05-15-04

PRONOSTIC MP1PMU ET QUINTÉ+ GRATUIT

FORME : 11-5-10-9

REGULIER : 1-8-4-7

CLASSE : 3-2-6-11

PROGRES : 12-15-16

SYNTHESE DU SPECIALISTE
11-5-10-9-1-8-4-7-3-2-6-12-15-16

------------------------------------------------------------------------------------------

05/09/2022 PRIX V AND B - FINALE DU TROPHEE VERT
13:50 - Réunion 1 Course 4 - CRAON
TROT ATTELE - 2775m - 80000.00€ - Corde à droite

SPECIAL ABONNE VIP ORDRE

 L'INCONTOURNABLE 02

TIERCE:02-14-11
QUARTE image02-14-11-13-01
QUINTE
image
02-14-11-13-01-04

PRONOSTIC MP1PMU ET QUINTÉ+ GRATUIT

FORME : 14-13-6-11

REGULIER : 9-2-1-12

CLASSE : 7-14-4

PROGRES : NEANT

SYNTHESE DU SPECIALISTE
14-13-6-11-9-2-1-12-7-4

------------------------------------------------------------------------------------------

04/09/2022 PRIX DES GRANDES CARRIERES
15:15 - Réunion 1 Course 4 - LONGCHAMP
PLAT - 1850m - 50000.00€ - Corde à droite

SPECIAL ABONNE VIP ORDRE

 L'INCONTOURNABLE 05

TIERCE:05-08-01
QUARTE image05-08-01-07-11
QUINTE-
image
05-08-01-07-11-15

PRONOSTIC mp1PMU ET QUINTÉ+ GRATUIT

FORME : 13-5-8-10

REGULIER : 1-6-7-8

CLASSE : 2-16-4-14

PROGRES : 3-9-12

SYNTHESE DU SPECIALISTE
13-5-8-10-1-6-7-2-16-4-14-3-9-12

------------------------------------------------------------------------------------------

03/09/2022 CRITERIUM 5 ANS-Q2 - PRIX JOCKEY
15:15 - Réunion 1 Course 3 - PARIS-VINCENNES
TROT ATTELE - 2700m - 120000.00€ - Corde à gauche

SPECIAL ABONNE VIP ORDRE

 L'INCONTOURNABLE 13

TIERCE:13-07-14
QUARTE image13-07-14-08-10
QUINTE-
image
13-07-14-08-10-04

PRONOSTIC PMU ET QUINTÉ+ GRATUIT

FORME : 14-8-6-13

REGULIER : 7-9-12-14

CLASSE : 5-10-3-8

PROGRES : 2-12-1

SYNTHESE DU SPECIALISTE
14-8-6-13-7-9-12-5-10-3-2-12-1

------------------------------------------------------------------------------------------

02/09/2022 PRIX DIOTIMA
20:15 - Réunion 1 Course 3 - PARIS-VINCENNES
TROT ATTELE - 2100m - 49000.00€

SPECIAL ABONNE VIP ORDRE

 L'INCONTOURNABLE 11

TIERCE:11-02-05
QUARTE image11-02-05-03-07
QUINTE-
image
11-02-05-03-07-01

PRONOSTIC PMU ET QUINTÉ+ GRATUIT

FORME : 5-7-9-3

REGULIER : 2-13-10-5

CLASSE : 6-1-11-13

PROGRES : 14

SYNTHESE DU SPECIALISTE
5-7-9-3-2-13-10-6-1-11-14

------------------------------------------------------------------------------------------

1er/09/2022 PRIX DE LA REINE MARGUERITE
18:20 - Réunion 1 Course 5 - LONGCHAMP
PLAT - 2250m - 50000.00€ - Corde à droite

SPECIAL ABONNE VIP ORDRE

 L'INCONTOURNABLE 07

TIERCE:07-13-12
QUARTE image07-13-12-05-04
QUINTE-
image
07-13-12-05-04-08

PRONOSTIC PMU ET QUINTÉ+ GRATUIT

FORME : 5-2-8-11

REGULIER : 9-6-1-14

CLASSE : 4-12-13-3

PROGRES : 7-10

SYNTHESE DU SPECIALISTE
5-2-8-11-9-6-1-14-4-12-13-3-7-10

------------------------------------------------------------------------------------------

31/08/2022 PRIX DES HAUTS-DE-FRANCE
13:50 - Réunion 1 Course 1 - COMPIEGNE
PLAT - 1600m - 50000.00€ - Corde à gauche

SPECIAL ABONNE VIP ORDRE

 L'INCONTOURNABLE 03

TIERCE:03-02-10
QUARTE image03-02-10-07-16
QUINTE-
image
03-02-10-07-16-04

PRONOSTIC PMU ET QUINTÉ+ GRATUIT

FORME : 4-7-10-9-16

REGULIER : 4-7-6-16-14

CLASSE : 2-1-11-12-3

PROGRES : 7-14-9-13-2

SYNTHESE DU SPECIALISTE
4-7-10-9-16-6-14-2-1-11-12-3-13

------------------------------------------------------------------------------------------

30/08/2022 PRIX REGION NORMANDIE
13:50 - Réunion 1 Course 1 - DIEPPE
PLAT - 1100m - 50000.00€

SPECIAL ABONNE VIP ORDRE

 L'INCONTOURNABLE 04

TIERCE:04-05-02
QUARTE image04-05-02-03-01
QUINTE-
image
04-05-02-03-01-15

PRONOSTIC PMU ET QUINTÉ+ GRATUIT

FORME : 8-6-4-3

REGULIER : 1-5-15-3

CLASSE : 7-12-14

PROGRES : 16-2

SYNTHESE DU SPECIALISTE
8-6-4-3-1-5-15-7-12-14-16-2

------------------------------------------------------------------------------------------

29/08/2022 PRIX DE BARBIZON
13:50 - Réunion 1 Course 1 - PARIS-VINCENNES
TROT ATTELE - 2100m - 44000.00€

SPECIAL ABONNE VIP ORDRE

 L'INCONTOURNABLE 11

TIERCE:11-02-06
QUARTE image11-02-06-08
QUINTE-
image
11-02-06-08-03-07

PRONOSTIC PMU ET QUINTÉ+ GRATUIT

FORME : 3-1-4-6

REGULIER : 5-2-12-3

CLASSE : 11-8-9-1

PROGRES : 14

SYNTHESE DU SPECIALISTE
3-1-4-6-5-2-12-11-8-9-14

------------------------------------------------------------------------------------------

28/08/2022 BARRIERE GRAND HANDICAP
15:15 - Réunion 1 Course 3 - DEAUVILLE
PLAT - 1900m - 70000.00€ - Corde à droite

SPECIAL ABONNE VIP ORDRE

 L'INCONTOURNABLE 04

TIERCE:04-06-09
QUARTE image04-06-09-02-16
QUINTE-
image
04-06-09-02-16-10

PRONOSTIC PMU ET QUINTÉ+ GRATUIT

FORME : 4-2-3-1

REGULIER : 5-6-7-4

CLASSE : 15-14-9-3

PROGRES : 7-8-12

SYNTHESE DU SPECIALISTE
4-2-3-1-5-6-7-15-14-9-8-12

------------------------------------------------------------------------------------------

27/08/2022 PRIX DE LA RECONVERSION DES CHEVAUX DE COURSES (PRIX DES CHENETTES)
15:15 - Réunion 1 Course 3 - DEAUVILLE
PLAT - 1900m - 55000.00€ - Corde à droite

SPECIAL ABONNE VIP ORDRE

 L'INCONTOURNABLE 08

TIERCE:08-01-16
QUARTE image08-01-16-14-05
QUINTE-
image
08-01-16-14-05-03

PRONOSTIC PMU ET QUINTÉ+ GRATUIT

FORME : 2-14-1-12

REGULIER : 7-5-6-2

CLASSE : 13-3-16-10

PROGRES : 15-6

SYNTHESE DU SPECIALISTE
2-14-1-12-7-5-6-13-3-16-10-15-6

------------------------------------------------------------------------------------------

26/08/2022 PRIX D'ARGENTAN
20:15 - Réunion 1 Course 3 - CABOURG
TROT ATTELE - 2725m - 36000.00€

SPECIAL ABONNE VIP ORDRE

 L'INCONTOURNABLE 03

TIERCE:03-12-13
QUARTE image03-12-13-02-04
QUINTE-
image
03-12-13-02-04-07

PRONOSTIC PMU ET QUINTÉ+ GRATUIT

FORME : 13-12-8-11

REGULIER : 9-3-10-13

CLASSE : 4-7-2-10

PROGRES : 5-1

SYNTHESE DU SPECIALISTE
13-12-8-11-9-3-10-4-7-2-5-1

------------------------------------------------------------------------------------------

25/08/2022 HANDICAP DE LA MANCHE - PRIX APOLLINE MATIN 6H/9H
20:15 - Réunion 1 Course 7 - DEAUVILLE
PLAT - 3200m - 50000.00€ - Corde à droite

SPECIAL ABONNE VIP ORDRE

 L'INCONTOURNABLE 07

TIERCE:07-01-14
QUARTE image07-01-14-08-11
QUINTE-
image
07-01-14-08-11-12

PRONOSTIC PMU ET QUINTÉ+ GRATUIT

FORME : 3-5-12-2

REGULIER : 1-6-11-3

CLASSE : 4-10-8-7

PROGRES : 14

SYNTHESE DU SPECIALISTE
3-5-12-2-1-6-11-4-10-8-7-14

------------------------------------------------------------------------------------------

24/08/2022 PRIX DE BEAUNE
20:15 - Réunion 1 Course 7 - PARIS-VINCENNES
TROT ATTELE - 2700m - 65000.00€ - Corde à gauche

SPECIAL ABONNE VIP ORDRE

 L'INCONTOURNABLE 15

TIERCE:15-12-14
QUARTE image15-12-14-04-03
QUINTE-
image
15-12-14-03-04-01

PRONOSTIC PMU ET QUINTÉ+ GRATUIT

FORME : 12-15-9-14

REGULIER : 11-4-3-12

CLASSE : 10-1-16

PROGRES : 2-14

SYNTHESE DU SPECIALISTE
12-15-9-14-11-4-3-10-1-16-2

------------------------------------------------------------------------------------------

23/08/2022 PRIX DU JOURNAL "LE PAYS D'AUGE" (PRIX DU HAVRE)
18:00 - Réunion 1 Course 8 - DEAUVILLE
PLAT - 1500m - 50000.00€ - Corde à droite

SPECIAL ABONNE VIP ORDRE

 L'INCONTOURNABLE 14

TIERCE:14-10-16
QUARTE image14-10-16-02-08
QUINTE-
image
14-10-16-02-08-04

PRONOSTIC PMU ET QUINTÉ+ GRATUIT

FORME : 4-1-10-2

REGULIER : 6-8-5-11

CLASSE : 7-13-16-9

PROGRES : 14-3

SYNTHESE DU SPECIALISTE
4-1-10-2-6-8-5-11-7-13-16-9-14-3

------------------------------------------------------------------------------------------

22/08/2022 GRAND STEEPLE-CHASE - VILLE DE DEAUVILLE
18:00 - Réunion 1 Course 8 - CLAIREFONTAINE
STEEPLE CHASE - 4500m - 95000.00€

SPECIAL ABONNE VIP ORDRE

 L'INCONTOURNABLE 01

TIERCE:01-06-02
QUARTE image01-03-02-06-12
QUINTE-
image
01-03-02-06-10-12

PRONOSTIC PMU ET QUINTÉ+ GRATUIT

FORME : 3-1-5-12

REGULIER : 4-8-7-2

CLASSE : 5-6-9-11

PROGRES : 3-5

SYNTHESE DU SPECIALISTE
3-1-5-12-4-8-7-2-5-6-11-9

------------------------------------------------------------------------------------------

21/08/2022 DARLEY PRIX DES GRENIERS A SEL
15:15 - Réunion 1 Course 3 - DEAUVILLE
PLAT - 2000m - 50000.00€ - Corde à droite

SPECIAL ABONNE VIP ORDRE

 L'INCONTOURNABLE 04

TIERCE:04-13-02
QUARTE image04-13-02-06-01
QUINTE-
image
04-13-02-06-01-03

PRONOSTIC PMU ET QUINTÉ+ GRATUIT

FORME : 6-1-9-13

REGULIER : 8-5-10-7

CLASSE : 4-3-2-11

PROGRES : 12-15

SYNTHESE DU SPECIALISTE
6-1-9-13-8-5-10-7-4-3-2-11-12-15

------------------------------------------------------------------------------------------

20/08/2022 PRIX DE BALLEROY
15:15 - Réunion 1 Course 3 - DEAUVILLE
PLAT - 1400m - 55000.00€

SPECIAL ABONNE VIP ORDRE

 L'INCONTOURNABLE 01

TIERCE:01-04-12
QUARTE image01-04-12-07-08 
QUINTE-
image
01-04-12-07-08-13

PRONOSTIC PMU ET QUINTÉ+ GRATUIT

FORME : 1-13-7-2

REGULIER : 14-6-8-1

CLASSE : 4-9-3

PROGRES : 12-15

SYNTHESE DU SPECIALISTE
1-13-7-2-14-6-8-4-9-3-12-15

------------------------------------------------------------------------------------------

19/08/2022 PRIX DU CASINO PARTOUCHE DE PORNICHET
20:15 - Réunion 1 Course 5 - PORNICHET
TROT ATTELE - 2725m - 32000.00€ - Corde à gauche


SPECIAL ABONNE VIP ORDRE

 L'INCONTOURNABLE 07

TIERCE:07-01-12
QUARTE image07-01-12-10-06 
QUINTE-
image
07-01-12-10-06-04

PRONOSTIC PMU ET QUINTÉ+ GRATUIT

FORME : 7-10-12-11

REGULIER : 9-13-1-6

CLASSE : 5-3-7

PROGRES : Neant

SYNTHESE DU SPECIALISTE
7-10-12-11-9-13-1-6-5-3

------------------------------------------------------------------------------------------

18/08/2022 PRIX DU VIEUX BASSIN
20:15 - Réunion 1 Course 8 - DEAUVILLE
PLAT - 2500m - 55000.00€ - Corde à droite



SPECIAL ABONNE VIP ORDRE

 L'INCONTOURNABLE 03

TIERCE:03-15-13
QUARTE image03-15-13-01-08
QUINTE-
image
03-15-13-01-08-11

PRONOSTIC PMU ET QUINTÉ+ GRATUIT

FORME : 8-3-10-2

REGULIER : 1-13-14-8

CLASSE : 12-9-11-3

PROGRES : 5-4-15

SYNTHESE DU SPECIALISTE
8-3-10-2-1-13-14-12-9-11-5-4-15

------------------------------------------------------------------------------------------


17/08/2022 PRIX DU PONT DE L'ALMA
20:15 - Réunion 1 Course 8 - ENGHIEN
TROT ATTELE - 2150m - 57000.00€


SPECIAL ABONNE VIP ORDRE

 L'INCONTOURNABLE 09

TIERCE:09-05-02
QUARTE image09-05-02-03-04
QUINTE-
image
09-05-02-03-04-06

PRONOSTIC PMU ET QUINTÉ+ GRATUIT

FORME : 7-4-9-1

REGULIER : 3-13-6-9

CLASSE : 2-11-5

PROGRES : 7-4

SYNTHESE DU SPECIALISTE
7-4-9-1-3-15-6-2-11-5

------------------------------------------------------------------------------------------


16/08/2022 PRIX FRANCOIS ANDRE -TROPHEES DU PERSONNEL DES COURSES ET DE L'ELEVAGE
18:00 - Réunion 1 Course 8 - DEAUVILLE
PLAT - 1400m - 50000.00€


SPECIAL ABONNE VIP ORDRE

 L'INCONTOURNABLE 07

TIERCE:07-12-09
QUARTE image07-12-09-06-05
QUINTE
image
07-12-09-06-05-15

PRONOSTIC PMU ET QUINTÉ+ GRATUIT

FORME :