mercredi 2 juin 2021

             GAGNEZ AVEC LE SYSTEME TOP DES TOPS SANS PRESSION. METTEZ-VOUS DANS LA COURSE EN GAGNANT A 100% AUX COURSES :

TIERCE QUINZAINE:  99 euros

QUARTE QUINZAINE: 103 euros

QUINTE QUINZAINE: 112 euros

100% à l'arrivée!!!

Phone & WhatsApp: +33 7 896 35 372

Agent Afrique: +226 64 057 666

E-mail: coupssurs.com


VIVEZ LES COURSES EN DIRECT EN GAGNANT TOUTES LES COURSES .




--------------------------------------------------------------------------------------------------------------

03/07/2022 HANDICAP DES HAUTS-DE-SEINE
15:15 - Réunion 1 Course 4 - SAINT CLOUD
PLAT - 2400m - 50000.00€ - Corde à gauche

SPECIAL ABONNE VIP ORDRE

 L'INCONTOURNABLE 00

TIERCE:00-00-00

QUARTE image00-00-00-00-00
QUINTE
image
00-00-00-00-00-00

PRONOSTIC PMU ET QUINTÉ+ GRATUIT

FORME : 4-15-6-3

REGULIER : 1-8-5-9

CLASSE : 2-11-4-15

PROGRES : 10-12

SYNTHESE DU SPECIALISTE
4-15-6-3-1-8-5-9-2-11-10-12

------------------------------------------------------------------------------------------

02/07/2022 PRIX DU ROUSSILLON
15:15 - Réunion 1 Course 3 - ENGHIEN
TROT ATTELE - 2150m - 57000.00€

SPECIAL ABONNE VIP ORDRE

 L'INCONTOURNABLE 06

TIERCE:06-10-01

QUARTE image06-10-01-12-04
QUINTE
image
06-10-01-12-04-05

PRONOSTIC PMU ET QUINTÉ+ GRATUIT

FORME : 6-4-13-3

REGULIER : 5-8-6-4

CLASSE : 12-9-14-5

PROGRES : 10-1

SYNTHESE DU SPECIALISTE
6-4-13-3-5-8-12-9-14-10-1

------------------------------------------------------------------------------------------

1er/07/2022 PRIX URANIA
20:15 - Réunion 1 Course 3 - PARIS-VINCENNES
TROT ATTELE - 2700m - 57000.00€ - Corde à gauche

SPECIAL ABONNE VIP ORDRE

 L'INCONTOURNABLE 08

TIERCE:08-02-12

QUARTE image08-02-12-13-11
QUINTE
image
08-02-12-11-13-07

PRONOSTIC PMU ET QUINTÉ+ GRATUIT

FORME : 12-11-8-13

REGULIER : 2-10-12

CLASSE : 8-16-3

PROGRES : 1-7-14

SYNTHESE DU SPECIALISTE
12-11-8-13-2-10-16-3-1-7-14

------------------------------------------------------------------------------------------

30/06/2022 PRIX DU PALAIS DES GLACES
20:15 - Réunion 1 Course 6 - LONGCHAMP
PLAT - 1850m - 50000.00€ - Corde à droite

SPECIAL ABONNE VIP ORDRE

 L'INCONTOURNABLE 05

TIERCE:05-07-06

QUARTE image05-07-06-02-08
QUINTE
image
05-07-06-02-08-14

PRONOSTIC PMU ET QUINTÉ+ GRATUIT

FORME : 2-10-8-5

REGULIER : 13-6-3-5

CLASSE : 7-4-12-2

PROGRES : 15-1

SYNTHESE DU SPECIALISTE
2-10-8-5-13-6-3-7-4-12-15-1

------------------------------------------------------------------------------------------

29/06/2022 Vichy - Prix du Bois du Bouc Attelé - 2950m | Réunion 1 - Course n°1

SPECIAL ABONNE VIP ORDRE

 L'INCONTOURNABLE 03

TIERCE:03-08-07

QUARTE image03-08-07-02-14
QUINTE
image
03-08-07-02-14-01

PRONOSTIC PMU ET QUINTÉ+ GRATUIT

FORME : 14-7-4-8

REGULIER : 6-3-5-14

CLASSE : 13-12-9-7

PROGRES : 7-4-14

SYNTHESE DU SPECIALISTE
14-7-4-8-6-3-5-13-12-9

------------------------------------------------------------------------------------------

28/06/2022 PRIX DE CHANTILLY
13:50 - Réunion 1 Course 4 - AUTEUIL
HAIES - 3900m - 95000.00€

SPECIAL ABONNE VIP ORDRE

 L'INCONTOURNABLE 05

TIERCE:05-11-07

QUARTE image05-11-07-06-10
QUINTE
image
05-11-07-06-10-01

PRONOSTIC PMU ET QUINTÉ+ GRATUIT

FORME : 6-5-3-10

REGULIER : 8-1-2-5

CLASSE : 7-9-11-6

PROGRES : 5-1

SYNTHESE DU SPECIALISTE
6-5-3-10-8-1-2-7-9-11

------------------------------------------------------------------------------------------

27/06/2022 PRIX FEDERATION DES COURSES DU CENTRE-EST
13:50 - Réunion 1 Course 1 - LYON PARILLY
PLAT - 2000m - 50000.00€ - Corde à gauche

SPECIAL ABONNE VIP ORDRE

 L'INCONTOURNABLE 16

TIERCE:16-03-05

QUARTE image16-03-05-07-10
QUINTE
image
16-03-05-07-10-06

PRONOSTIC PMU ET QUINTÉ+ GRATUIT

FORME : 7-16-1-3

REGULIER : 13-6-10-7

CLASSE : 2-5-3

PROGRES : 9-14

SYNTHESE DU SPECIALISTE
7-16-1-3-13-6-10-2-5-9-14

------------------------------------------------------------------------------------------

26/06/2022 PRIX LE PARISIEN (PRIX BERTRAND DELOISON)
15:15 - Réunion 1 Course 4 - PARIS-VINCENNES
TROT ATTELE - 2850m - 90000.00€ - Corde à gauche

SPECIAL ABONNE VIP ORDRE

 L'INCONTOURNABLE 10

TIERCE
10-02-15

QUARTE image10-02-15-03-06
QUINTE
image
10-02-15-03-06-04

PRONOSTIC PMU ET QUINTÉ+ GRATUIT

FORME : 3-12-15-14

REGULIER : 13-10-8-3

CLASSE : 11-4-12

PROGRES : 1-2

SYNTHESE DU SPECIALISTE
3-12-15-14-13-10-8-11-4-12-1-2

------------------------------------------------------------------------------------------

25/06/2022 PRIX AU-DELA DES PISTES
15:15 - Réunion 1 Course 3 - COMPIEGNE
PLAT - 2800m - 50000.00€ - Corde à gauche

SPECIAL ABONNE VIP ORDRE

 L'INCONTOURNABLE 04

TIERCE
04-10-12

QUARTE image04-10-12-05-07
QUINTE
image
07-10-12-05-07-02

PRONOSTIC PMU ET QUINTÉ+ GRATUIT

FORME : 6-4-10-5

REGULIER : 12-8-2-6

CLASSE : 11-3-9-4

PROGRES : 16-15

SYNTHESE DU SPECIALISTE
6-4-10-5-12-8-2-12-11-3-9-16-15

------------------------------------------------------------------------------------------

24/06/2022 PRIX TERPSICHORE
20:15 - Réunion 1 Course 3 - PARIS-VINCENNES
TROT ATTELE - 2700m - 44000.00€ - Corde à gauche

SPECIAL ABONNE VIP ORDRE

 L'INCONTOURNABLE 13

TIERCE
13-06-07

QUARTE image13-06-07-12-11
QUINTE
image
13-06-07-12-11-05

PRONOSTIC PMU ET QUINTÉ+ GRATUIT

FORME : 6-13-11-12

REGULIER : 16-8-6-7

CLASSE : 5-10-11

PROGRES : 4-9

SYNTHESE DU SPECIALISTE
6-13-11-12-16-8-7-5-10-4-9

------------------------------------------------------------------------------------------

23/06/2022 PRIX CHANTILLY CAPITALE DU CHEVAL
20:15 - Réunion 1 Course 7 - CHANTILLY
PLAT - 1600m - 55000.00€ - Corde à droite

SPECIAL ABONNE VIP ORDRE

 L'INCONTOURNABLE 14

TIERCE
14-02-06

QUARTE image14-02-06-07-01
QUINTE
image
14-02-06-07-01-09

PRONOSTIC PMU ET QUINTÉ+ GRATUIT

FORME : 7-4-11-14

REGULIER : 15-5-2-7

CLASSE : 3-8-11-4

PROGRES : 13-9

SYNTHESE DU SPECIALISTE
7-4-11-14-15-5-2-3-8-13-9

------------------------------------------------------------------------------------------

22/06/2022 GRAND NATIONAL DU TROT «PARISTURF»

13:50 - Réunion 1 Course 1 - TOULOUSE
TROT ATTELE - 2950m - 90000.00€ - Corde à droite

SPECIAL ABONNE VIP ORDRE

 L'INCONTOURNABLE 04

TIERCE
04-02-15

QUARTE image04-02-15-08-03
QUINTE
image
04-02-15-08-03-09

PRONOSTIC PMU ET QUINTÉ+ GRATUIT

FORME : 15-4-2-8

REGULIER : 3-14-4-15

CLASSE : 11-5-13-4 

PROGRES : 9-12

SYNTHESE DU SPECIALISTE
15-4-2-8-3-14-11-5-13-9-12

------------------------------------------------------------------------------------------

21/06/2022 HANDICAP D'ETE
20:15 - Réunion 1 Course 9 - SAINT CLOUD
PLAT - 1600m - 50000.00€ - Corde à gauche

SPECIAL ABONNE VIP ORDRE

 L'INCONTOURNABLE 05

TIERCE
05-15-11

QUARTE image05-15-11-02-10
QUINTE
image
05-15-11-02-10-01

PRONOSTIC PMU ET QUINTÉ+ GRATUIT

FORME : 5-2-3-1

REGULIER : 10-11-13-5

CLASSE : 16-6-1-15

PROGRES : 8-9

SYNTHESE DU SPECIALISTE
5-2-3-1-10-11-13-16-6-15-8-9

------------------------------------------------------------------------------------------

20/06/2022 PRIX REVERDY
13:50 - Réunion 1 Course 4 - NANTES
PLAT - 2400m - 50000.00€ - Corde à gauche

SPECIAL ABONNE VIP ORDRE

 L'INCONTOURNABLE 13

TIERCE
13-09-12

QUARTE image13-09-12-04-05
QUINTE
image
13-09-12-04-05-06

PRONOSTIC PMU ET QUINTÉ+ GRATUIT

FORME : 7-3-2-6

REGULIER : 5-12-1-7

CLASSE : 11-4-9-2

PROGRES : 14-13

SYNTHESE DU SPECIALISTE
7-3-2-6-5-12-1-11-4-9-13-14

------------------------------------------------------------------------------------------

19/06/2022 PRIX DE DIANE LONGINES
16:00 - Réunion 1 Course 5 - CHANTILLY
PLAT - 2100m - 1000000.00€ - Corde à droite

SPECIAL ABONNE VIP ORDRE

 L'INCONTOURNABLE 04

TIERCE
04-08-12

QUARTE image04-08-12-06-02
QUINTE
image
04-08-12-06-02-01

PRONOSTIC PMU ET QUINTÉ+ GRATUIT

FORME : 2-4-6-12

REGULIER : 5-7-10-4

CLASSE : 17-16-8

PROGRES : 18

SYNTHESE DU SPECIALISTE
2-4-6-12-5-7-10-17-16-8-18

------------------------------------------------------------------------------------------

18/06/2022 PRIX DES INVALIDES
13:50 - Réunion 1 Course 9 - ENGHIEN
TROT ATTELE - 2875m - 57000.00€ - Corde à gauche

SPECIAL ABONNE VIP ORDRE

 L'INCONTOURNABLE 06

TIERCE
06-02-12

QUARTE image06-02-12-14-05
QUINTE
image
06-02-12-14-05-01

PRONOSTIC PMU ET QUINTÉ+ GRATUIT

FORME : 12-6-2-16

REGULIER : 3-4-6-14

CLASSE : 16-13-9

PROGRES : 1-7

SYNTHESE DU SPECIALISTE
12-6-2-16-3-4-14-9-13

------------------------------------------------------------------------------------------

17/06/2022 PRIX DE LA FORET DE CONCISE
20:15 - Réunion 1 Course 7 - LAVAL
TROT ATTELE - 2850m - 32000.00€ - Corde à gauche

SPECIAL ABONNE VIP ORDRE

 L'INCONTOURNABLE 01

TIERCE
01-11-12

QUARTE image01-11-12-08-14
QUINTE
image
01-11-12-08-14-10

PRONOSTIC PMU ET QUINTÉ+ GRATUIT

FORME : 11-8-14-7

REGULIER : 9-6-11-8

CLASSE : 12-4-10-09

PROGRES : 5

SYNTHESE DU SPECIALISTE
11-8-14-7-9-6-12-4-10-5

------------------------------------------------------------------------------------------

16/06/2022 PRIX MAJOR FRIDOLIN
20:15 - Réunion 1 Course 7 - LONGCHAMP
PLAT - 1400m - 50000.00€ - Corde à droite

SPECIAL ABONNE VIP ORDRE

 L'INCONTOURNABLE 06

TIERCE
06-11-10

QUARTE image06-11-10-13-15
QUINTE
image
06-10-11-13-15-08

PRONOSTIC PMU ET QUINTÉ+ GRATUIT

FORME : 6-13-14-3

REGULIER : 12-1-14-11

CLASSE : 8-4-10-13

PROGRES : 2-5-7-9

SYNTHESE DU SPECIALISTE
6-13-14-3-12-1-11-8-4-10-2-5-9-7

------------------------------------------------------------------------------------------

15/06/2022 PRIX DU BASSIN D'ARCACHON - SABT
13:50 - Réunion 1 Course 1 - LA TESTE DE BUCH
PLAT - 1100m - 50000.00€

SPECIAL ABONNE VIP ORDRE

 L'INCONTOURNABLE 03

TIERCE
03-06-13

QUARTE image03-06-13-04-08
QUINTE
image
03-06-13-04-08-02

PRONOSTIC PMU ET QUINTÉ+ GRATUIT

FORME : 3-4-1-10

REGULIER : 8-9-3-4

CLASSE : 6-2-5-14

PROGRES : 13-12

SYNTHESE DU SPECIALISTE
3-4-1-10-8-9-6-2-5-14-13-12

------------------------------------------------------------------------------------------

14/06/2022 PRIX DES FUTAIES
13:50 - Réunion 1 Course 4 - COMPIEGNE
PLAT - 2000m - 55000.00€ - Corde à gauche

SPECIAL ABONNE VIP ORDRE

 L'INCONTOURNABLE 03

TIERCE
03-04-02

QUARTE image03-04-02-13-05
QUINTE
image
03-04-02-13-10-05

PRONOSTIC PMU ET QUINTÉ+ GRATUIT

FORME : 1-10-3-13

REGULIER : 2-4-13-1

CLASSE : 8-9-12

PROGRES : 6-11

SYNTHESE DU SPECIALISTE
1-10-3-13-2-4-8-9-12-6-11

------------------------------------------------------------------------------------------

13/06/2022 PRIX DE THURY HARCOURT
13:50 - Réunion 1 Course 1 - CAEN
TROT ATTELE - 2450m - 33000.00€ - Corde à droite

SPECIAL ABONNE VIP ORDRE

 L'INCONTOURNABLE 14

TIERCE
14-01-05

QUARTE image14-01-05-08-13
QUINTE
image
14-01-05-08-13-06

PRONOSTIC PMU ET QUINTÉ+ GRATUIT

FORME : 6-7-14-8

REGULIER : 13-15-6-7

CLASSE : 5-1-14-2

PROGRES : 3

SYNTHESE DU SPECIALISTE
6-7-14-8-13-15-5-1-2-3

------------------------------------------------------------------------------------------

12/06/2022 PRIX LE FIGAROSCOPE (PRIX DE LA PLACE VENDOME)
15:15 - Réunion 1 Course 4 - LONGCHAMP
PLAT - 2000m - 50000.00€ - Corde à droite

SPECIAL ABONNE VIP ORDRE

 L'INCONTOURNABLE 12

TIERCE
12-03-10

QUARTE image12-03-10-01-15
QUINTE
image
12-03-10-01-15-02

PRONOSTIC PMU ET QUINTÉ+ GRATUIT

FORME : 12-2-3-9

REGULIER : 13-10-12-3

CLASSE : 11-6-8-12

PROGRES : 1-4-14

SYNTHESE DU SPECIALISTE
12-2-3-9-13-10-11-6-8-1-4-14

------------------------------------------------------------------------------------------


11/06/2022 PRIX DU QUERCY
15:15 - Réunion 1 Course 3 - PARIS-VINCENNES
TROT ATTELE - 2850m - 75000.00€ - Corde à gauche

SPECIAL ABONNE VIP ORDRE

 L'INCONTOURNABLE 06

TIERCE
06-12-11

QUARTE image06-12-11-07-14
QUINTE
image
06-12-11-07-14-04

PRONOSTIC PMU ET QUINTÉ+ GRATUIT

FORME : 6-7-12-11

REGULIER : 2-14-11-6

CLASSE : 4-8-5-12

PROGRES : 10

SYNTHESE DU SPECIALISTE
6-7-12-11-2-14-4-8-2-10

------------------------------------------------------------------------------------------

10/06/2022 PRIX TROPIC NIGHT SESSION (PRIX TITANIA)
20:15 - Réunion 1 Course 3 - PARIS-VINCENNES
TROT ATTELE - 2850m - 57000.00€ - Corde à gauche

SPECIAL ABONNE VIP ORDRE

 L'INCONTOURNABLE 11

TIERCE
11-06-15

QUARTE image11-06-15-07-12
QUINTE
image
11-06-15-07-12-02

PRONOSTIC PMU ET QUINTÉ+ GRATUIT

FORME : 11-12-7-2

REGULIER : 6-1-12-11

CLASSE : 13-8-9-12

PROGRES : 15-3

SYNTHESE DU SPECIALISTE
11-12-7-2-6-1-13-8-9-15-3

------------------------------------------------------------------------------------------

09/06/2022 PRIX DU BEL AIR
20:15 - Réunion 1 Course 6 - LONGCHAMP
PLAT - 1300m - 55000.00€ - Corde à droite

SPECIAL ABONNE VIP ORDRE

 L'INCONTOURNABLE 11

TIERCE
11-01-09

QUARTE image11-01-09-07-02
QUINTE
image
11-01-09-02-07-10

PRONOSTIC PMU ET QUINTÉ+ GRATUIT

FORME : 7-1-9-11

REGULIER : 10-8-12-7

CLASSE : 5-6-13-1

PROGRES : 14

SYNTHESE DU SPECIALISTE
7-1-9-11-10-8-12-5-6-13-14

------------------------------------------------------------------------------------------


  08/06/2022 GRAND NATIONAL DU TROT
                     13:50 - Réunion 1 Course 1 - LAVAL
            TROT ATTELE - 2850m - 90000.00€ - Corde à gauche

SPECIAL ABONNE VIP ORDRE

 L'INCONTOURNABLE 06

TIERCE
06-09-03

QUARTE image06-09-03-12-07
QUINTE
image
06-09-03-12-07-02

PRONOSTIC PMU ET QUINTÉ+ GRATUIT

FORME : 12-10-9-11

REGULIER : 3-7-12-2

CLASSE : 6-4-10-9

PROGRES : 16-1

SYNTHESE DU SPECIALISTE
12-10-9-11-3-7-2-6-4-16-1
 

------------------------------------------------------------------------------------------

07/06/2022 PRIX DU VIVARAIS
13:50 - Réunion 1 Course 4 - VICHY
TROT ATTELE - 2150m - 32000.00€

SPECIAL ABONNE VIP ORDRE

 L'INCONTOURNABLE 11

TIERCE
11-05-02

QUARTE image11-05-02-04-03
QUINTE
image
11-05-02-04-03-06

PRONOSTIC PMU ET QUINTÉ+ GRATUIT

FORME : 3-5-4-13

REGULIER : 2-11-4-12

CLASSE : 1-7-8-13

PROGRES : 6

SYNTHESE DU SPECIALISTE
3-5-4-13-2-11-12-1-7-8-6
 

------------------------------------------------------------------------------------------

06/06/2022 PRIX DU HARAS DE JARDY
15:15 - Réunion 1 Course 3 - SAINT CLOUD
PLAT - 2400m - 50000.00€ - Corde à gauche

SPECIAL ABONNE VIP ORDRE

 L'INCONTOURNABLE 10

TIERCE
10-05-11

QUARTE image10-05-11-04-07
QUINTE
image
10-05-04-11-02-07

PRONOSTIC PMU ET QUINTÉ+ GRATUIT

FORME : 2-9-4-5

REGULIER : 10-8-2-9

CLASSE : 11-1-1-12

PROGRES : 6-16-15-3

SYNTHESE DU SPECIALISTE
2-9-4-5-10-8-11-1-12-6-16-15-3

------------------------------------------------------------------------------------------

05/06/2022 QATAR PRIX DU JOCKEY CLUB
16:00 - Réunion 1 Course 5 - CHANTILLY
PLAT - 2100m - 1500000.00€ - Corde à droite


SPECIAL ABONNE VIP ORDRE

 L'INCONTOURNABLE 01

TIERCE
01-09-07

QUARTE image01-09-07-3-02
QUINTE
image
01-09-07-03-02-05

PRONOSTIC PMU ET QUINTÉ+ GRATUIT

FORME : 3-10-7-2

REGULIER : 1-5-12-2

CLASSE : 8-4-14-11

PROGRES : 9

SYNTHESE DU SPECIALISTE
3-10-7-2-1-5-12-8-4-14-11-9

------------------------------------------------------------------------------------------

04/06/2022 PRIX JEAN VICTOR
16:40 - Réuni on 1 Course 1 - AUTEUIL
STEEPLE CHASE - 3700m - 95000.00€


SPECIAL ABONNE VIP ORDRE

 L'INCONTOURNABLE 05

TIERCE
05-14-09

QUARTE image05-14-09-06-02
QUINTE
image
05-14-09-06-02-11

PRONOSTIC PMU ET QUINTÉ+ GRATUIT

FORME : 6-1-5-2

REGULIER : 11-3-8-6

CLASSE : 12-9-16

PROGRES : 14

SYNTHESE DU SPECIALISTE
6-1-5-2-11-3-8-12-9-16-14

------------------------------------------------------------------------------------------

03/06/2022 PRIX KISSA
20:15 - Réunion 1 Course 4 - PARIS-VINCENNES
TROT ATTELE - 2700m - 57000.00€ - Corde à gauche

SPECIAL ABONNE VIP ORDRE

 L'INCONTOURNABLE 15

TIERCE
15-13-05

QUARTE image15-13-05-04-02
QUINTE
image
15-13-05-04-02-06

PRONOSTIC PMU ET QUINTÉ+ GRATUIT

FORME : 15-2-4-13

REGULIER : 5-15-8-11

CLASSE : 12-14-4-10

PROGRES : 3-2

SYNTHESE DU SPECIALISTE
15-2-4-13-5-8-11-12-14-10-3

------------------------------------------------------------------------------------------

02/06/2022 PRIX DE L'ILE DE LA CITE
20:15 - Réunion 1 Course 6 - LONGCHAMP
PLAT - 1850m - 50000.00€ - Corde à droite

SPECIAL ABONNE VIP ORDRE

 L'INCONTOURNABLE 04

TIERCE
04-12-13

QUARTE image07-04-12-13-09
QUINTE
image
04-07-12-13-09-02

PRONOSTIC PMU ET QUINTÉ+ GRATUIT

FORME : 7-2-4-8

REGULIER : 1-13-4-2

CLASSE : 5-6-13-7

PROGRES : 12-3

SYNTHESE DU SPECIALISTE
7-2-4-8-1-13-5-6-12-3

------------------------------------------------------------------------------------------

1er/06/2022 PRIX MAGIC NIGHT
13:50 - Réunion 1 Course 1 - SAINT CLOUD
PLAT - 2000m - 50000.00€ - Corde à gauche

SPECIAL ABONNE VIP ORDRE

 L'INCONTOURNABLE 05

TIERCE
05-15-04

QUARTE image05-15-04-01-14
QUINTE
image
05-15-04-01-14-03

PRONOSTIC PMU ET QUINTÉ+ GRATUIT

FORME : 4-5-2-14

REGULIER : 13-8-5-15

CLASSE : 9-10-13-3

PROGRES : 16

SYNTHESE DU SPECIALISTE
4-5-2-14-13-8-15-9-10-3-16

------------------------------------------------------------------------------------------

31/05/2022 HANDICAP D'ANGERS LOIRE METROPOLE
13:50 - Réunion 1 Course 1 - ANGERS
PLAT - 1600m - 50000.00€ - Corde à droite

                     

SPECIAL ABONNE VIP ORDRE

 L'INCONTOURNABLE 01

TIERCE
01-04-07

QUARTE image01-04-07-08-09
QUINTE
image
01-04-07-08-09-12

PRONOSTIC PMU ET QUINTÉ+ GRATUIT

FORME : 8-1-7-4

REGULIER : 11-15-7-8

CLASSE : 9-5-11-14

PROGRES : 10-12

SYNTHESE DU SPECIALISTE
8-1-7-4-11-15-9-5-14-10-12

------------------------------------------------------------------------------------------

30/05/2022 PRIX DE LA MUSIQUE
13:50 - Réunion 1 Course 4 - STRASBOURG
PLAT - 3000m - 50000.00€ - Corde à droite


SPECIAL ABONNE VIP ORDRE

 L'INCONTOURNABLE 01

TIERCE
01-05-09

QUARTE image01-09-05-02-07
QUINTE
image
05-09-01-02-07-08

PRONOSTIC PMU ET QUINTÉ+ GRATUIT

FORME : 2-1-11-4

REGULIER : 12-6-5-3

CLASSE : 9-7-2-1

PROGRES : 10-13

SYNTHESE DU SPECIALISTE
2-1-11-4-12-6-5-3-9-7-10-13

------------------------------------------------------------------------------------------

29/05/2022 PRIX DE LA VILLE DE PARIS
15:15 - Réunion 1 Course 3 - LONGCHAMP
PLAT - 1600m - 55000.00€ - Corde à droite

         

SPECIAL ABONNE VIP ORDRE

 L'INCONTOURNABLE 02

TIERCE
02-16-07

QUARTE image02-16-07-09-04
QUINTE
image
02-16-07-09-04-13

PRONOSTIC PMU ET QUINTÉ+ GRATUIT

FORME : 9-2-11-7

REGULIER : 10-4-9-2

CLASSE : 16-13-7-5

PROGRES : 12

SYNTHESE DU SPECIALISTE
9-2-11-7-10-4-16-13-5-12

------------------------------------------------------------------------------------------

28/05/2022 PRIX DU RHONE
15:15 - Réunion 1 Course 3 - ENGHIEN
TROT ATTELE - 2150m - 70000.00€

                    

SPECIAL ABONNE VIP ORDRE

 L'INCONTOURNABLE 00

TIERCE
00-00-00

QUARTE image00-00-00-00-00
QUINTE
image
00-00-00-00-00-00

PRONOSTIC PMU ET QUINTÉ+ GRATUIT

FORME :  3-1-11-10

REGULIER : 6-2-3-8

CLASSE : 4-7-3-1

PROGRES : 14-9-5-15

SYNTHESE DU SPECIALISTE
3-1-11-10-6-2-8-4-7-14-9-5-15

------------------------------------------------------------------------------------------

                      27/05/2022 PRIX SIRRAH
20:15 - Réunion 1 Course 3 - PARIS-VINCENNES
TROT ATTELE - 2700m - 65000.00€ - Corde à gauche

SPECIAL ABONNE VIP ORDRE

 L'INCONTOURNABLE14

TIERCE
14-04-02

QUARTE image14-04-02-05-09
QUINTE
image
14-04-02-05-09-03

PRONOSTIC PMU ET QUINTÉ+ GRATUIT

FORME :  14-5-8-2

REGULIER : 10-15-4-14

CLASSE : 9-6-2-7

PROGRES : 11-3

SYNTHESE DU SPECIALISTE
14-5-8-2-10-15-4-9-6-7-11-3

------------------------------------------------------------------------------------------

26/05/2022 PRIX DE MONTRETOUT
20:15 - Réunion 1 Course 7 - LONGCHAMP
PLAT - 1600m - 52000.00€ - Corde à droite

SPECIAL ABONNE VIP ORDRE

 L'INCONTOURNABLEimage05

TIERCE
05-09-08

QUARTE image05-09-08-01-12
QUINTE
image
05-09-08-01-12-07

PRONOSTIC PMU ET QUINTÉ+ GRATUIT

FORME :  1-6-8-4

REGULIER : 5-10-1-12

CLASSE : 9-3-13-5

PROGRES : 11-14-7-2

SYNTHESE DU SPECIALISTE
1-6-8-4-5-10-12-9-3-13-11-14-7-2

------------------------------------------------------------------------------------------

25/05/2022 GRAND NATIONAL DU TROT PARISTURF
13:50 - Réunion 1 Course 1 - LE CROISE-LAROCHE
TROT ATTELE - 2800m - 90000.00€ - Corde à gauche

SPECIAL ABONNE VIP ORDRE

 L'INCONTOURNABLEimage10

TIERCE
10-07-15

QUARTE image10-07-15-12-01
QUINTE
image
10-07-01-12-05-15

PRONOSTIC PMU ET QUINTÉ+ GRATUIT

FORME :  12-5-6-10

REGULIER : 7-11-15-5

CLASSE : 13-8-12-5

PROGRES : 16-1

SYNTHESE DU SPECIALISTE
12-5-6-10-7-11-15-13-8-16-1

------------------------------------------------------------------------------------------

24/05/2022 PRIX DES COTEAUX DE LA SEINE
13:50 - Réunion 1 Course 1 - SAINT CLOUD
PLAT - 1400m - 50000.00€ - Corde à gauche

SPECIAL ABONNE VIP ORDRE

 L'INCONTOURNABLEimage08

TIERCE
08-04-01

QUARTE image04-08-01-06-15
QUINTE
image
04-01-08-06-07-15

PRONOSTIC PMU ET QUINTÉ+ GRATUIT

FORME :  8-3-10-7

REGULIER : 4-1-3-12

CLASSE : 15-6-11-8

PROGRES : 13-2

SYNTHESE DU SPECIALISTE
8-3-10-7-4-1-12-15-6-11-13-2

------------------------------------------------------------------------------------------


23/05/2022 PRIX LOUIS BRUNET
13:50 - Réunion 1 Course 4 - MARSEILLE BORELY
PLAT - 2100m - 50000.00€ - Corde à gauche


SPECIAL ABONNE VIP ORDRE

 L'INCONTOURNABLEimage03

TIERCE
03-12-14

QUARTE image03-12-14-01-05
QUINTE
image
03-12-14-05-01-08

PRONOSTIC PMU ET QUINTÉ+ GRATUIT

FORME :  3-12-1-6

REGULIER : 8-14-3-5

CLASSE : 10-2-1

PROGRES : 9-4

SYNTHESE DU SPECIALISTE
3-12-1-6-8-14-5-10-2-9-4

------------------------------------------------------------------------------------------

22/05/2022 PRIX LE PARISIEN - PRIX EX VOTO
15:15 - Réunion 1 Course 3 - AUTEUIL
HAIES - 3600m - 47000.00€


SPECIAL ABONNE VIP ORDRE

 L'INCONTOURNABLEimage15

TIERCE
15-09-01

QUARTE image15-09-01-05-14
QUINTE
image
15-09-01-05-14-02 

PRONOSTIC PMU ET QUINTÉ+ GRATUIT

FORME :   15-5-14-3

REGULIER : 10-5-9-13

CLASSE : 2-8-6-15

PROGRES : 7

SYNTHESE DU SPECIALISTE
15-5-14-3-10-9-13-2-8-6-7

------------------------------------------------------------------------------------------

21/05/2022 PRIX LE PARISIEN - PRIX LE GUALES DE MEZAUBRAN
15:15 - Réunion 1 Course 3 - AUTEUIL
HAIES - 3600m - 95000.00€


SPECIAL ABONNE VIP ORDRE

 L'INCONTOURNABLEimage01

TIERCE
01-07-12

QUARTE image01-07-12-06-05
QUINTE
image
01-07-12-06-05-04

PRONOSTIC PMU ET QUINTÉ+ GRATUIT

FORME :   7-11-1-5

REGULIER : 14-8-12-7

CLASSE : 3-4-2-11

PROGRES : 10-6

SYNTHESE DU SPECIALISTE
7-11-1-5-14-8-12-3-4-2-10-6

------------------------------------------------------------------------------------------

20/05/2022 PRIX FIDES
20:15 - Réunion 1 Course 3 - PARIS-VINCENNES
TROT ATTELE - 2700m - 44000.00€ - Corde à gauche


SPECIAL ABONNE VIP ORDRE

 L'INCONTOURNABLEimage09

TIERCE
09-13-12

QUARTE image09-13-12-14-10
QUINTE
image
09-13-12-14-10-01

PRONOSTIC PMU ET QUINTÉ+ GRATUIT

FORME :   9-13-14-12

REGULIER : 5-4-9-8

CLASSE : 1-10-9-13

PROGRES : 3

SYNTHESE DU SPECIALISTE
9-13-14-12-5-4-8-1-10-3

------------------------------------------------------------------------------------------

19/05/2022 PRIX DES QUINZE-VINGTS
20:15 - Réunion 1 Course 7 - LONGCHAMP
PLAT - 1700m - 50000.00€ - Corde à droite


SPECIAL ABONNE VIP ORDRE

 L'INCONTOURNABLEimage07

TIERCE
07-02-14

QUARTE image07-02-14-08-15
QUINTE
image
07-02-14-08-13-12

PRONOSTIC PMU ET QUINTÉ+ GRATUIT

FORME :   15-12-11-14

REGULIER : 7-2-1-12

CLASSE : 3-9-10-14

PROGRES : 6-16-8-5

SYNTHESE DU SPECIALISTE
15-12-11-14-7-2-1-3-9-10-6-16-8-5

------------------------------------------------------------------------------------------


18/05/2022 PRIX DU GATINAIS
13:50 - Réunion 1 Course 1 - PARIS-VINCENNES
TROT ATTELE - 2850m - 90000.00€ - Corde à gauche


SPECIAL ABONNE VIP ORDRE

 L'INCONTOURNABLEimage13

TIERCE
13-02-07

QUARTE image13-02-07-09-04
QUINTE
image
13-02-07-09-04-08

PRONOSTIC PMU ET QUINTÉ+ GRATUIT

FORME :   9-13-3-5

REGULIER : 7-2-9-1

CLASSE : 8-11-9-3

PROGRES : 4-6-12

SYNTHESE DU SPECIALISTE
9-13-3-5-7-2-1-8-11-4-6-12

------------------------------------------------------------------------------------------

17/05/2022 HANDICAP DE L'ILE-DE-FRANCE
13:50 - Réunion 1 Course 1 - SAINT CLOUD
PLAT - 2100m - 50000.00€ - Corde à droite


SPECIAL ABONNE VIP ORDRE

 L'INCONTOURNABLEimage15

TIERCE
15-07-12

QUARTE image15-07-12-02-04
QUINTE
image
15-07-12-02-04-08

PRONOSTIC PMU ET QUINTÉ+ GRATUIT

FORME :   7-4-2-6

REGULIER : 1-9-5-3

CLASSE : 11-14-7-15

PROGRES : 12

SYNTHESE DU SPECIALISTE
7-4-2-6-1-9-5-3-11-14-15-12

------------------------------------------------------------------------------------------

16/05/2022 PRIX DE SAINT POURCAIN SUR SIOULE
13:50 - Réunion 1 Course 4 - VICHY
TROT ATTELE - 2950m - 36000.00€ - Corde à droite

SPECIAL ABONNE VIP ORDRE

 L'INCONTOURNABLEimage13

TIERCE

13-11-07

QUARTE image13-11-07-09-15
QUINTE
image
13-11-07-09-15-04

PRONOSTIC PMU ET QUINTÉ+ GRATUIT

FORME :   13-7-15-9

REGULIER : 11-4-13-16

CLASSE : 1-3-13-7

PROGRES : 14

SYNTHESE DU SPECIALISTE
13-7-15-9-11-4-16-1-3-14

------------------------------------------------------------------------------------------

15/05/2022 EMIRATES POULE D'ESSAI DES POULICHES
15:15 - Réunion 1 Course 4 - LONGCHAMP
PLAT - 1600m - 500000.00€ - Corde à droite

SPECIAL ABONNE VIP ORDRE

 L'INCONTOURNABLEimage10

TIERCE

10-08-03

QUARTE image10-08-03-04-07
QUINTE
image
10-08-03-04-07-06

PRONOSTIC PMU ET QUINTÉ+ GRATUIT

FORME :   7-8-10-6

REGULIER : 13-1-7-11

CLASSE : 14-3-2-8

PROGRES : 5

SYNTHESE DU SPECIALISTE
7-8-10-6-13-1-11-14-3-2-5

------------------------------------------------------------------------------------------

14/05/2022 PRIX DES DUCS DE NORMANDIE
15:15 - Réunion 1 Course 3 - CAEN
TROT ATTELE - 2450m - 150000.00€ - Corde à droite

SPECIAL ABONNE VIP ORDRE

 L'INCONTOURNABLEimage13

TIERCE

13-06-11

QUARTE image13-06-11-10-09
QUINTE
image
13-06-11-10-09-14

PRONOSTIC PMU ET QUINTÉ+ GRATUIT

FORME :   14-7-13-10

REGULIER : 12-6-14-7

CLASSE : 11-9-4-7

PROGRES : 8

SYNTHESE DU SPECIALISTE
14-7-13-10-12-6-11-9-4-8

------------------------------------------------------------------------------------------

13/05/2022 PRIX LEO
20:15 - Réunion 1 Course 3 - PARIS-VINCENNES
TROT ATTELE - 2850m - 57000.00€ - Corde à gauche

SPECIAL ABONNE VIP ORDRE

 L'INCONTOURNABLEimage15

TIERCE

15-02-11

QUARTE image15-02-11-16-08
QUINTE
image
15-02-11-16-08-14

PRONOSTIC PMU ET QUINTÉ+ GRATUIT

FORME :   15-11-2-16

REGULIER : 8-4-15-11

CLASSE : 14-12-7-2

PROGRES : 3-1

SYNTHESE DU SPECIALISTE
15-11-2-16-8-4-14-12-7-3-1

------------------------------------------------------------------------------------------


12/05/2022 PRIX DE MARLY
20:15 - Réunion 1 Course 6 - LONGCHAMP
PLAT - 1300m - 55000.00€ - Corde à droite

SPECIAL ABONNE VIP ORDRE

 L'INCONTOURNABLEimage09

TIERCE

09-05-06

QUARTE image09-05-06-01-07
QUINTE
image
09-05-06-01-07-02

PRONOSTIC PMU ET QUINTÉ+ GRATUIT

FORME :   4-1-5-16

REGULIER : 3-7-1-6

CLASSE : 13-9-2-16

PROGRES : 11-8

SYNTHESE DU SPECIALISTE
4-1-5-16-3-7-6-13-9-2-11-8

------------------------------------------------------------------------------------------

11/05/2022 PRIX DE LA FORET DE FONTAINEBLEAU
13:50 - Réunion 1 Course 1 - FONTAINEBLEAU
PLAT - 1200m - 50000.00€


SPECIAL ABONNE VIP ORDRE

 L'INCONTOURNABLEimage10

TIERCE

10-06-05

QUARTE image10-06-05-01-08
QUINTE
image
10-06-05-01-08-14

PRONOSTIC PMU ET QUINTÉ+ GRATUIT

FORME :   5-10-1-12

REGULIER : 3-2-10-4

CLASSE : 6-15-8-5

PROGRES : 13-14

SYNTHESE DU SPECIALISTE
5-10-1-12-3-2-4-6-15-8-13-14

------------------------------------------------------------------------------------------



10/05/2022 PRIX DES GRANDES ECURIES
13:50 - Réunion 1 Course 1 - CHANTILLY
PLAT - 1600m - 50000.00€ - Corde à droite

SPECIAL ABONNE VIP ORDRE

 L'INCONTOURNABLEimage11

TIERCE

11-16-05

QUARTE image11-16-05-15-12
QUINTE
image
11-16-05-15-12-14

PRONOSTIC PMU ET QUINTÉ+ GRATUIT

FORME :   5-16-15-11

REGULIER : 14-13-5-7

CLASSE : 6-1-5-16

PROGRES : 10-8

SYNTHESE DU SPECIALISTE
5-16-15-11-14-13-7-6-1-10-8

------------------------------------------------------------------------------------------

09/05/2022 PRIX BENJAMIN BOUTIN
13:50 - Réunion 1 Course 1 - COMPIEGNE
PLAT - 1800m - 50000.00€ - Corde à gauche


SPECIAL ABONNE VIP ORDRE

 L'INCONTOURNABLEimage02

TIERCE

02-03-12

QUARTE image02-03-12-11-05
QUINTE
image
02-03-12-05-11-07

PRONOSTIC PMU ET QUINTÉ+ GRATUIT

FORME :   3-12-9-2

REGULIER : 16-6-11-12

CLASSE : 13-1-4-10

PROGRES : 7

SYNTHESE DU SPECIALISTE
3-12-9-2-16-6-11-13-1-4-10-7

------------------------------------------------------------------------------------------

08/05/2022 PRIX DE LA FOUILLEUSE
15:15 - Réunion 1 Course 3 - SAINT CLOUD
PLAT - 1600m - 55000.00€ - Corde à gauche

SPECIAL ABONNE VIP ORDRE

 L'INCONTOURNABLEimage14

TIERCE

14-03-01

QUARTE image14-03-01-04-11
QUINTE
image
14-03-01-04-11-15

PRONOSTIC PMU ET QUINTÉ+ GRATUIT

FORME :    15-5-11-14

REGULIER : 4-16-15-1

CLASSE : 9-10-3-5

PROGRES : 13-7

SYNTHESE DU SPECIALISTE
15-5-11-14-4-16-1-9-10-3-13-7

------------------------------------------------------------------------------------------

07/05/2022 PRIX DU ROUERGUE
15:15 - Réunion 1 Course 3 - PARIS-VINCENNES
TROT ATTELE - 2100m - 75000.00€

SPECIAL ABONNE VIP ORDRE

 L'INCONTOURNABLEimage06

TIERCE

06-05-13

QUARTE image06-05-13-02-03
QUINTE
image
06-05-13-02-03-08

PRONOSTIC PMU ET QUINTÉ+ GRATUIT

FORME :    5-4-2-6

REGULIER : 8-7-5-9

CLASSE : 3-12-1-8

PROGRES : 13-14

SYNTHESE DU SPECIALISTE
5-4-2-6-8-7-9-3-12-1-13-14

------------------------------------------------------------------------------------------

06/05/2022 PRIX BETTINA
20:15 - Réunion 1 Course 3 - PARIS-VINCENNES
TROT ATTELE - 2100m - 57000.00€

SPECIAL ABONNE VIP ORDRE

 L'INCONTOURNABLEimage11

TIERCE

11-14-02

QUARTE image11-14-02-05-15
QUINTE
image
11-14-02-05-15-10

PRONOSTIC PMU ET QUINTÉ+ GRATUIT

FORME :    5-11-6-13

REGULIER : 1-2-11-10

CLASSE : 9-14-16-3

PROGRES : 15

SYNTHESE DU SPECIALISTE
05-11-6-13-1-2-10-9-14-16-3-15

------------------------------------------------------------------------------------------

05/05/2022 GRAND PRIX DE LYON-PARILLY
13:50 - Réunion 1 Course 1 - LYON PARILLY
PLAT - 2400m - 50000.00€ - Corde à gauche

SPECIAL ABONNE VIP ORDRE

 L'INCONTOURNABLEimage13

TIERCE

13-07-10

QUARTE image13-07-10-01-05
QUINTE
image
13-07-10-05-01-09

PRONOSTIC PMU ET QUINTÉ+ GRATUIT

FORME :    5-4-3-11

REGULIER : 6-10-8-5

CLASSE : 7-12-1-2

PROGRES : 13-16

SYNTHESE DU SPECIALISTE
5-4-3-11-6-10-8-7-12-1-2-13-16

------------------------------------------------------------------------------------------

04/05/2022 PRIX DE L'ORANGERIE
13:50 - Réunion 1 Course 1 - LONGCHAMP
PLAT - 1400m - 50000.00€ - Corde à droite

SPECIAL ABONNE VIP ORDRE

 L'INCONTOURNABLEimage08

TIERCE

08-15-03

QUARTE image08-15-03-01-02
QUINTE
image
08-15-03-01-02-04

PRONOSTIC PMU ET QUINTÉ+ GRATUIT

FORME :    6-4-2-15

REGULIER : 16-1-6-3

CLASSE : 8-7-5-2

PROGRES : 13-14

SYNTHESE DU SPECIALISTE
6-4-2-15-16-1-3-8-7-5-13-14

------------------------------------------------------------------------------------------

03/05/2022 PRIX DE LA FORET DE CHANTILLY
13:50 - Réunion 1 Course 1 - CHANTILLY
PLAT - 3000m - 50000.00€ - Corde à droite


SPECIAL ABONNE VIP ORDRE

 L'INCONTOURNABLEimage03

TIERCE

03-11-04

QUARTE image03-11-04-06-05
QUINTE
image
03-11-04-06-05-12

PRONOSTIC PMU ET QUINTÉ+ GRATUIT

FORME :    5-3-11-4

REGULIER : 6-10-5-8

CLASSE : 7-14-2-11

PROGRES : 1-12

SYNTHESE DU SPECIALISTE
5-3-11-4-6-10-8-7-14-2-1-12

------------------------------------------------------------------------------------------

 02/05/2022 PRIX DE LA CHAISE DIEU

13:50 - Réunion 1 Course 4 - VICHY
TROT ATTELE - 2950m - 36000.00€ - Corde à droite

SPECIAL ABONNE VIP ORDRE

 L'INCONTOURNABLEimage13

TIERCE

13-02-11

QUARTE image13-02-11-04-08
QUINTE
image
13-02-11-04-08-14

PRONOSTIC PMU ET QUINTÉ+ GRATUIT

FORME :    13-11-7-14

REGULIER : 12-6-4-13

CLASSE : 8-10-2-11 

PROGRES : 9

SYNTHESE DU SPECIALISTE
13-11-7-14-12-6-4-8-10-2-9   

------------------------------------------------------------------------------------------

1er/05/2022 GRAND HANDICAP DE LA NOUVELLE PISTE
15:15 - Réunion 1 Course 4 - LONGCHAMP
PLAT - 1400m - 70000.00€ - Corde à droite


SPECIAL ABONNE VIP ORDRE

 L'INCONTOURNABLEimage03

TIERCE

03-04-13

QUARTE image03-04-13-02-01
QUINTE
image
03-04-13-02-01-10 

PRONOSTIC PMU ET QUINTÉ+ GRATUIT

FORME : 3-2-10-4

REGULIER : 6-12-3-14

CLASSE : 5-11-2-9

PROGRES : 16-13

SYNTHESE DU SPECIALISTE
3-2-10-4-6-12-14-5-11-9-16-13

------------------------------------------------------------------------------------------

30/04/2022 GRANDE COURSE DE HAIES DE PRINTEMPS - PRIX LE PARISIEN
15:15 - Réunion 1 Course 1 - AUTEUIL
HAIES - 4300m - 155000.00€

SPECIAL ABONNE VIP ORDRE

 L'INCONTOURNABLEimage01

TIERCE

01-04-20

QUARTE image01-04-20-03-19
QUINTE
image
01-04-20-03-19-11

PRONOSTIC PMU ET QUINTÉ+ GRATUIT

FORME : 1-3-5-11

REGULIER : 19-13-15-1

CLASSE : 9-10-7-3

PROGRES : 17-18-20-4

SYNTHESE DU SPECIALISTE
1-3-5-11-19-13-15-9-10-7-17-18-20-4

------------------------------------------------------------------------------------------

29/04/2022 PRIX HUBERTA
20:15 - Réunion 1 Course 3 - MAUQUENCHY
TROT ATTELE - 2850m - 57000.00€ - Corde à gauche

SPECIAL ABONNE VIP ORDRE

 L'INCONTOURNABLEimage03

TIERCE

03-16-11

QUARTE image03-16-11-06-07
QUINTE
image
03-16-06-11-07-14

PRONOSTIC PMU ET QUINTÉ+ GRATUIT

FORME : 11-3-6-8

REGULIER : 12-7-16-11

CLASSE : 1-14-3-11

PROGRES : 15

SYNTHESE DU SPECIALISTE
11-3-6-8-12-7-16-1-14-15

------------------------------------------------------------------------------------------

28/04/2022 PRIX DE LA COMEDIE FRANCAISE
13:50 - Réunion 1 Course 1 - LONGCHAMP
PLAT - 2100m - 50000.00€ - Corde à droite

SPECIAL ABONNE VIP ORDRE

 L'INCONTOURNABLEimage07

TIERCE

07-04-05

QUARTE image07-04-05-14-06
QUINTE
image
07-04-05-14-06-12

PRONOSTIC PMU ET QUINTÉ+ GRATUIT

FORME : 12-7-14-1

REGULIER : 11-5-6-7

CLASSE : 9-13-12-8

PROGRES : 2-4

SYNTHESE DU SPECIALISTE
12-7-14-1-11-5-6-9-13-8-2-4

------------------------------------------------------------------------------------------

27/04/2022 GRAND NATIONAL DU TROT PARISTURF
13:50 - Réunion 1 Course 1 - CHATEAUBRIANT
TROT ATTELE - 2975m - 90000.00€ - Corde à droite

SPECIAL ABONNE VIP ORDRE

 L'INCONTOURNABLEimage16

TIERCE

16-13-09

QUARTE image16-13-09-04-06
QUINTE
image
16-13-09-04-06-11

PRONOSTIC PMU ET QUINTÉ+ GRATUIT

FORME : 16-10-7-13

REGULIER : 1-9-4-16

CLASSE : 8-5-14-10

PROGRES : 15-6

SYNTHESE DU SPECIALISTE
16-10-7-13-1-9-4-8-5-14-15-6

------------------------------------------------------------------------------------------

26/04/2022 PRIX GASTON BRANERE
13:50 - Réunion 1 Course 1 - COMPIEGNE
HAIES - 3600m - 95000.00€

SPECIAL ABONNE VIP ORDRE

 L'INCONTOURNABLEimage12

TIERCE

12-03-07

QUARTE image12-03-07-15-08
QUINTE
image
12-03-07-15-08-01

PRONOSTIC PMU ET QUINTÉ+ GRATUIT

FORME : 12-3-1-15

REGULIER : 6-9-10-12

CLASSE : 7-5-16-1

PROGRES : 2

SYNTHESE DU SPECIALISTE
12-3-1-15-6-9-10-7-5-16-2

------------------------------------------------------------------------------------------

25/04/2022 PRIX BMW MINI BAYERN MERIGNAC - LA TESTE - HANDICAP DE BORDEAUX
13:50 - Réunion 1 Course 1 - BORDEAUX-LE BOUSCAT
PLAT - 1600m - 50000.00€ - Corde à droite

SPECIAL ABONNE VIP ORDRE

 L'INCONTOURNABLEimage09

TIERCE

09-14-06

QUARTE image09-14-06-07-11
QUINTE
image
09-14-06-07-11-04

PRONOSTIC PMU ET QUINTÉ+ GRATUIT

FORME : 9-7-3-14

REGULIER : 5-8-12-4

CLASSE : 10-16-6-14

PROGRES : 11-15

SYNTHESE DU SPECIALISTE
9-7-3-14-5-8-12-4-10-16-6-11-15

------------------------------------------------------------------------------------------

24/04/2022 PRIX KARCIMONT
15:15 - Réunion 1 Course 3 - AUTEUIL
STEEPLE CHASE - 4400m - 95000.00€

SPECIAL ABONNE VIP ORDRE

 L'INCONTOURNABLEimage00

TIERCE

00-00-00

QUARTE image00-00-00-00-00
QUINTE
image
00-00-00-00-00-00

PRONOSTIC PMU ET QUINTÉ+ GRATUIT

FORME : 2-1-5-4

REGULIER : 13-6-3-2

CLASSE : 7-9-4-2

PROGRES : 11-12

SYNTHESE DU SPECIALISTE
2-1-5-4-13-6-3-7-9-11-12

------------------------------------------------------------------------------------------

23/04/2022 PRIX DE LA PORTE D'AUTEUIL
15:15 - Réunion 1 Course 3 - ENGHIEN
TROT ATTELE - 2150m - 65000.00€

SPECIAL ABONNE VIP ORDRE

 L'INCONTOURNABLEimage06

TIERCE

06-08-05

QUARTE image06-08-05-01-11
QUINTE
image
06-08-05-01-11-02

PRONOSTIC PMU ET QUINTÉ+ GRATUIT

FORME : 1-6-14-2

REGULIER : 13-9-15-1

CLASSE : 8-7-11-1

PROGRES : 10-5

SYNTHESE DU SPECIALISTE
1-6-14-2-13-9-15-8-7-11-10-5

------------------------------------------------------------------------------------------

22/04/2022 PRIX BRASIL NIGHT SESSION (PRIX MARTHA)
20:15 - Réunion 1 Course 3 - PARIS-VINCENNES
TROT ATTELE - 2100m - 44000.00€


SPECIAL ABONNE VIP ORDRE

 L'INCONTOURNABLEimage07

TIERCE

07-02-06

QUARTE image07-02-06-04-01
QUINTE
image
07-02-06-04-01-08

PRONOSTIC PMU ET QUINTÉ+ GRATUIT

FORME : 10-8-2-7

REGULIER : 4-6-5-2

CLASSE : 14-11-3-10

PROGRES : 13

SYNTHESE DU SPECIALISTE
10-8-2-7-4-6-5-14-11-3-13

------------------------------------------------------------------------------------------

21/04/2022 PRIX DU PAVILLON ROYAL
13:50 - Réunion 1 Course 1 - LONGCHAMP
PLAT - 1850m - 50000.00€ - Corde à droite

SPECIAL ABONNE VIP ORDRE

 L'INCONTOURNABLEimage06

TIERCE

06-11-08

QUARTE image06-11-08-05-10
QUINTE
image
06-11-08-05-10-15

PRONOSTIC PMU ET QUINTÉ+ GRATUIT

FORME : 5-11-1-4

REGULIER : 3-15-6-11

CLASSE : 2-9-10-5

PROGRES : 4-14-8

SYNTHESE DU SPECIALISTE
5-11-1-4-3-15-6-2-9-10-4-14-8

------------------------------------------------------------------------------------------

20/04/2022 PRIX DE LA VILLE DE CORDEMAIS
13:50 - Réunion 1 Course 1 - CORDEMAIS
TROT ATTELE - 2825m - 32000.00€


SPECIAL ABONNE VIP ORDRE

 L'INCONTOURNABLEimage02

TIERCE

02-12-08

QUARTE image02-12-08-11-06
QUINTE
image
02-12-08-11-06-01

PRONOSTIC PMU ET QUINTÉ+ GRATUIT

FORME : 8-7-2-13

REGULIER : 3-16-6-8

CLASSE : 12-9-8-2

PROGRES : 11-4-15

SYNTHESE DU SPECIALISTE
8-7-2-13-3-16-6-12-9-11-4-15

------------------------------------------------------------------------------------------

19/04/2022 PRIX DE PAU
13:50 - Réunion 1 Course 1 - AUTEUIL
HAIES - 3900m - 95000.00€

SPECIAL ABONNE VIP ORDRE

 L'INCONTOURNABLEimage01

TIERCE

01-09-13

QUARTE image01-09-13-03-10
QUINTE
image
01-09-13-03-10-04

PRONOSTIC PMU ET QUINTÉ+ GRATUIT

FORME : 9-10-6-4

REGULIER : 1-5-2-9

CLASSE : 13-15-7-10

PROGRES : 9-1

SYNTHESE DU SPECIALISTE
9-10-6-4-1-5-2-13-15-7

------------------------------------------------------------------------------------------

18/04/2022 PRIX DES PLATANES
15:15 - Réunion 1 Course 3 - SAINT CLOUD
PLAT - 2400m - 50000.00€ - Corde à gauche

SPECIAL ABONNE VIP ORDRE

 L'INCONTOURNABLEimage08

TIERCE

08-06-05

QUARTE image08-06-05-12-09
QUINTE
image
08-06-05-12-09-07

PRONOSTIC PMU ET QUINTÉ+ GRATUIT

FORME : 1-8-12-2

REGULIER : 9-4-10-1

CLASSE : 3-6-5-8

PROGRES : 16-13

SYNTHESE DU SPECIALISTE
1-8-12-2-9-4-10-3-6-5-16-13

------------------------------------------------------------------------------------------

17/04/2022 GRAND HANDICAP DE PAQUES
15:15 - Réunion 1 Course 3 - LONGCHAMP
PLAT - 2400m - 70000.00€ - Corde à droit

SPECIAL ABONNE VIP ORDRE

 L'INCONTOURNABLEimage07

TIERCE

07-01-10

QUARTE image07-01-10-08-02
QUINTE
image
07-01-02-08-02-11

PRONOSTIC PMU ET QUINTÉ+ GRATUIT

FORME : 1-7-14-4

REGULIER : 3-5-8-7

CLASSE : 6-16-10-1

PROGRES : 9-11

SYNTHESE DU SPECIALISTE
1-7-14-4-3-5-8-6-16-10-9-11

------------------------------------------------------------------------------------------

16/04/2022 PRIX HENRI LEVESQUE
15:15 - Réunion 1 Course 3 - PARIS-VINCENNES
TROT ATTELE - 2700m - 120000.00€ - Corde à gauche

SPECIAL ABONNE VIP ORDRE

L'INCONTOURNABLEimage05

TIERCE

05-12-15

QUARTE image05-12-15-10-07
QUINTE
image
05-12-15-10-07-08

PRONOSTIC PMU ET QUINTÉ+ GRATUIT

FORME : 15-5-12-10

REGULIER : 8-3-9-15

CLASSE : 7-11-4-10

PROGRES : 3

SYNTHESE DU SPECIALISTE
15-5-12-10-8-3-9-7-11-4

------------------------------------------------------------------------------------------

15/04/2022 PRIX HENRIETTA
20:15 - Réunion 1 Course 4 - PARIS-VINCENNES
TROT ATTELE - 2100m - 44000.00€

SPECIAL ABONNE VIP ORDRE

 L'INCONTOURNABLEimage10

TIERCE

10-07-03

QUARTE image10-07-03-08-02
QUINTE
image
10-07-03-08-02-13

PRONOSTIC PMU ET QUINTÉ+ GRATUIT

FORME : 8-1-2-3

REGULIER : 7-13-9-8

CLASSE : 10-13-5-1

PROGRES : 12

SYNTHESE DU SPECIALISTE
8-1-2-3-7-13-9-10-13-5-12

------------------------------------------------------------------------------------------

14/04/2022 PRIX ROSE OR NO
13:50 - Réunion 1 Course 1 - AUTEUIL
HAIES - 3900m - 95000.00€

SPECIAL ABONNE VIP ORDRE

 L'INCONTOURNABLEimage03

TIERCE

03-02-09

QUARTE image03-02-09-05-07
QUINTE
image
03-02-09-05-15-04

PRONOSTIC PMU ET QUINTÉ+ GRATUIT

FORME : 5-7-3-2

REGULIER : 10-8-11-4

CLASSE : 6-9-5-3

PROGRES : 7-5-1

SYNTHESE DU SPECIALISTE
5-7-3-2-10-8-11-4-6-9-1

------------------------------------------------------------------------------------------

13/04/2022 GRAND NATIONAL DU TROT PARIS-TURF
13:50 - Réunion 1 Course 1 - REIMS
TROT ATTELE - 2550m - 90000.00€ - Corde à droite

SPECIAL ABONNE VIP ORDRE

 L'INCONTOURNABLEimage01

TIERCE

01-08-05

QUARTE image01-08-05-14-04
QUINTE
image
01-08-05-14-04-03

PRONOSTIC PMU ET QUINTÉ+ GRATUIT

FORME : 8-2-14-11

REGULIER : 1-6-16-8

CLASSE : 7-9-12-5

PROGRES : 8-5-1

SYNTHESE DU SPECIALISTE
8-2-11-14-1-6-16-7-9-12-5

------------------------------------------------------------------------------------------

12/04/2022 PRIX ROLAND FOUGEDOIRE
13:50 - Réunion 1 Course 1 - FONTAINEBLEAU
PLAT - 1800m - 50000.00€ - Corde à gauche

SPECIAL ABONNE VIP ORDRE

 L'INCONTOURNABLEimage11

TIERCE

11-02-12

QUARTE image11-02-12-09-08
QUINTE
image
11-02-12-09-08-10

PRONOSTIC PMU ET QUINTÉ+ GRATUIT

FORME : 9-11-4-6

REGULIER : 13-7-1-11

CLASSE : 12-2-10-6

PROGRES : 8-11

SYNTHESE DU SPECIALISTE
9-11-4-6-13-7-1-12-2-10-6-8

------------------------------------------------------------------------------------------

11/04/2022 PRIX DE LA ROCHELLE
13:50 - Réunion 1 Course 4 - COMPIEGNE
STEEPLE CHASE - 3800m - 95000.00€

SPECIAL ABONNE VIP ORDRE

 L'INCONTOURNABLEimage08

TIERCE

08-13-15

QUARTE image08-13-15-11-01
QUINTE
image
08-13-15-01-11-09

PRONOSTIC PMU ET QUINTÉ+ GRATUIT

FORME : 8-11-7-13

REGULIER : 14-6-15-12

CLASSE : 4-9-1-13

PROGRES : 2-14-1

SYNTHESE DU SPECIALISTE
8-11-7-13-14-6-15-12-4-9-1-2

------------------------------------------------------------------------------------------

10/04/2022 PRIX DE CHEVILLY
15:15 - Réunion 1 Course 3 - LONGCHAMP
PLAT - 1400m - 50000.00€ - Corde à droite

SPECIAL ABONNE VIP ORDRE

 L'INCONTOURNABLEimage02

TIERCE

02-12-09

QUARTE image02-12-09-15-01 
QUINTE
image
02-12-15-09-01-04

PRONOSTIC PMU ET QUINTÉ+ GRATUIT

FORME : 9-12-2-15

REGULIER : 1-4-3-16

CLASSE : 7-8-11-13

PROGRES : 9-1-2

SYNTHESE DU SPECIALISTE
9-12-2-15-1-4-3-16-7-8-11-13

------------------------------------------------------------------------------------------

09/04/2022 PRIX D'AUBUSSON
15:15 - Réunion 1 Course 3 - PARIS-VINCENNES
TROT ATTELE - 2100m - 65000.00€

SPECIAL ABONNE VIP ORDRE

 L'INCONTOURNABLEimage01

TIERCE

01-08-14

QUARTE image01-08-14-15-06
QUINTE
image
01-08-14-15-06-02

PRONOSTIC PMU ET QUINTÉ+ GRATUIT

FORME : 14-2-1-8

REGULIER : 6-2-9-15

CLASSE : 13-4-1-6

PROGRES : 1-6

SYNTHESE DU SPECIALISTE
14-2-1-8-6-2-9-15-13-4

------------------------------------------------------------------------------------------

08/04/2022 PRIX CEPHENS
20:15 - Réunion 1 Course 4 - PARIS-VINCENNES
 TROT ATTELE - 2850m - 44000.00€ - Corde à gauche

SPECIAL ABONNE VIP ORDRE

 L'INCONTOURNABLEimage11

TIERCE

11-12-01

QUARTE image11-12-01-08-06
QUINTE
image
11-12-01-08-06-04

PRONOSTIC PMU ET QUINTÉ+ GRATUIT

FORME : 11-8-12-13

REGULIER : 7-4-14-8

CLASSE : 10-16-3-11

PROGRES : 9-1

SYNTHESE DU SPECIALISTE
11-8-12-13-7-4-14-10-16-3-9-1

------------------------------------------------------------------------------------------

07/04/2022 PRIX DE L'OPERATION OVERLORD
13:50 - Réunion 1 Course 1 - DEAUVILLE
PLAT - 1900m - 50000.00€ - Corde à droite

SPECIAL ABONNE VIP ORDRE

 L'INCONTOURNABLEimage16

TIERCE

16-02-13

QUARTE image16-02-13-04-05
QUINTE
image
16-02-13-04-09-05

PRONOSTIC PMU ET QUINTÉ+ GRATUIT

FORME : 9-4-5-16

REGULIER : 8-3-13-2

CLASSE : 15-6-9-4

PROGRES : 1-16

SYNTHESE DU SPECIALISTE
9-4-5-16-8-3-13-2-15-6-1-16

------------------------------------------------------------------------------------------

06/04/2022 GRAND PRIX ANGERS LOIRE METROPOLE
13:50 - Réunion 1 Course 1 - ANGERS
TROT ATTELE - 3100m - 64000.00€ - Corde à droite

SPECIAL ABONNE VIP ORDRE

 L'INCONTOURNABLEimage05

TIERCE

05-15-09

QUARTE image05-15-09-14-13
QUINTE
image
05-15-09-14-13-16

PRONOSTIC PMU ET QUINTÉ+ GRATUIT

FORME : 16-15-12-14

REGULIER : 9-13-10-16

CLASSE : 5-2-1-11

PROGRES : 6

SYNTHESE DU SPECIALISTE
16-15-12-14-9-13-10-5-2-1-11-6

------------------------------------------------------------------------------------------

05/04/2022 PRIX DE L'AUTOROUTE DE L'OUEST
13:50 - Réunion 1 Course 1 - SAINT CLOUD
PLAT - 1600m - 50000.00€ - Corde à gauche

SPECIAL ABONNE VIP ORDRE

 L'INCONTOURNABLEimage08

TIERCE

08-13-01

QUARTE image08-13-01-09-11
QUINTE
image
08-13-01-09-02-11

PRONOSTIC PMU ET QUINTÉ+ GRATUIT

FORME : 9-3-2-8

REGULIER : 7-10-1-3

CLASSE :6-13-4-7

PROGRES : 13-16-15

SYNTHESE DU SPECIALISTE
9-3-2-8-7-10-1-6-13-4-16-15

------------------------------------------------------------------------------------------

04/04/2022 PRIX DES GRANDES FONTAINES
13:50 - Réunion 1 Course 1 - CHANTILLY
PLAT - 3000m - 50000.00€ - Corde à droite

SPECIAL ABONNE VIP ORDRE

 L'INCONTOURNABLEimage06

TIERCE

06-02-05

QUARTE image06-02-05-14-10
QUINTE
image
06-02-05-14-10-03

PRONOSTIC PMU ET QUINTÉ+ GRATUIT

FORME : 2-14-3-11

REGULIER : 5-1-8-9

CLASSE : 7-13-4-14

PROGRES : 12-6

SYNTHESE DU SPECIALISTE
2-14-3-11-5-1-8-9-7-13-4-12-6

------------------------------------------------------------------------------------------

03/04/2022 PRIX DU PRESIDENT DE LA REPUBLIQUE
15:15 - Réunion 1 Course 3 - AUTEUIL
STEEPLE CHASE - 4700m - 225000.00€

SPECIAL ABONNE VIP ORDRE

 L'INCONTOURNABLEimage02

TIERCE

02-08-04

QUARTE image02-08-04-09-03
QUINTE
image
02-08-04-09-03-12

PRONOSTIC PMU ET QUINTÉ+ GRATUIT

FORME : 2-3-15-8

REGULIER : 4-18-13-2

CLASSE : 5-10-1-11

PROGRES : 6-14-8-9

SYNTHESE DU SPECIALISTE
2-3-15-8-4-18-13-5-10-1-11-6-14-9

------------------------------------------------------------------------------------------

02/04/2022 PRIX DU LANGUEDOC
15:15 - Réunion 1 Course 3 - SAINT CLOUD
PLAT - 2000m - 50000.00€ - Corde à gauche

SPECIAL ABONNE VIP ORDRE

 L'INCONTOURNABLEimage07

TIERCE

07-10-14

QUARTE image07-10-14-04-05
QUINTE
image
07-10-14-04-05-12

PRONOSTIC PMU ET QUINTÉ+ GRATUIT

FORME : 3-6-5-7

REGULIER : 8-1-4-7

CLASSE : 12-11-10-5

PROGRES : 2-14-7

SYNTHESE DU SPECIALISTE
3-6-5-7-8-1-4-12-11-10-2-14

------------------------------------------------------------------------------------------

1er/04/2022 PRIX AMALTHEA
20:15 - Réunion 1 Course 3 - PARIS-VINCENNES
TROT ATTELE - 2100m - 65000.00€

SPECIAL ABONNE VIP ORDRE

 L'INCONTOURNABLEimage10

TIERCE

10-05-07

QUARTE image10-05-07-01-11
QUINTE
image
10-05-07-01-11-13

PRONOSTIC PMU ET QUINTÉ+ GRATUIT

FORME : 10-13-7-1

REGULIER : 5-3-8-10

CLASSE : 2-9-6

PROGRES : 10-7

SYNTHESE DU SPECIALISTE
10-13-7-1-5-3-8-2-9-2

------------------------------------------------------------------------------------------

31/03/2022 PRIX DE LA JOURNEE DES PLANTES
13:50 - Réunion 1 Course 1 - CHANTILLY
PLAT - 1600m - 50000.00€ - Corde à droite

SPECIAL ABONNE VIP ORDRE

 L'INCONTOURNABLEimage05

TIERCE

05-09-07

QUARTE image05-09-07-03-11
QUINTE
image
05-09-07-03-10-11

PRONOSTIC PMU ET QUINTÉ+ GRATUIT

FORME : 3-5-1-4

REGULIER : 14-8-2-3

CLASSE : 7-6-9-1

PROGRES : 12-14-16

SYNTHESE DU SPECIALISTE
3-5-1-4-14-8-2--7-6-9-12-16

------------------------------------------------------------------------------------------

30/03/2022 GRAND NATIONAL DU TROT
13:50 - Réunion 1 Course 1 - SALON DE PROVENCE
TROT ATTELE - 3000m - 90000.00€ - Corde à droite

SPECIAL ABONNE VIP ORDRE

 L'INCONTOURNABLEimage13

TIERCE

13-10-12

QUARTE image13-10-12-04-02
QUINTE
image
13-12-04-10-08-02

PRONOSTIC PMU ET QUINTÉ+ GRATUIT

FORME : 14-13-4-16

REGULIER : 3-9-10-4

CLASSE : 5-6-4-14

PROGRES : 12-15

SYNTHESE DU SPECIALISTE
14-13-4-16-3-9-10-5-6-12-15

------------------------------------------------------------------------------------------

29/03/2022 PRIX DE LA GLORIETTE
13:50 - Réunion 1 Course 1 - SAINT CLOUD
PLAT - 2400m - 50000.00€ - Corde à gauche

SPECIAL ABONNE VIP ORDRE

 L'INCONTOURNABLE