mercredi 2 juin 2021

              METTEZ-VOUS DANS LA COURSE EN GAGNANT A 100% AUX PRONOSTICS DIAMANT AVEC TOUTES SES INFORMATIONS DISCRETES ET CONFIDENTIELLES  :

ABONNEMENT VIP

TIERCE QUINZAINE:  99 euros

QUARTE QUINZAINE: 103 euros

QUINTE QUINZAINE: 112 euros

100% à l'arrivée!!!

Phone & WhatsApp: +33 7 896 35 372

Agent Afrique: +226 64 057 666

E-mail: coupssurs2022@gmail.com


VIVEZ LES COURSES EN DIRECT EN GAGNANT TOUTES LES COURSES AVEC LES DECIDEURS DES NUMERIQUES PMU.FR. FAITES VOS ABONNEMENTS TOP DES TOPS VIP EN QUINZAINE ET VOUS SEREZ HEUREUX CHAQUE JOUR




--------------------------------------------------------------------------------------------------------------

30/09/2022 PRIX ELLA
20:15 - Réunion 1 Course 3 - PARIS-VINCENNES
TROT ATTELE - 2850m - 44000.00€ - Corde à gauche

SPECIAL ABONNE VIP ORDRE

 L'INCONTOURNABLE 00

TIERCE:00-00-00
QUARTE image00-00-00-00-00
QUINTE
image
00-00-00-00-00-00

PRONOSTIC MP1PMU ET QUINTÉ+ GRATUIT

FORME : 9-12-5-14

REGULIER : 3-11-15-9

CLASSE : 16-13-9-12

PROGRES : 10-6-4

SYNTHESE DU SPECIALISTE
9-12-5-14-3-11-15-16-13-10-6-4

------------------------------------------------------------------------------------------

29/09/2022 PRIX DE LA GALERIE DES BATAILLES
13:50 - Réunion 1 Course 2 - CHANTILLY
PLAT - 1600m - 50000.00€ - Corde à droite

SPECIAL ABONNE VIP ORDRE

 L'INCONTOURNABLE 11

TIERCE:11-07-16
QUARTE image11-07-16-02-12
QUINTE
image
11-07-16-02-12-06

PRONOSTIC MP1PMU ET QUINTÉ+ GRATUIT

FORME : 10-15-2-11

REGULIER : 3-7-13-10

CLASSE : 4-14-16-15

PROGRES : 12-1

SYNTHESE DU SPECIALISTE
10-15-2-11-3-7-13-4-14-16-12-1

------------------------------------------------------------------------------------------

28/09/2022 GRAND NATIONAL DU TROT
13:50 - Réunion 1 Course 1 - VIRE
TROT ATTELE - 3475m - 90000.00€ - Corde à droite

SPECIAL ABONNE VIP ORDRE

 L'INCONTOURNABLE 11

TIERCE:11-05-03
QUARTE image11-05-03-01-13
QUINTE
image
11-05-03-01-13-14

PRONOSTIC MP1PMU ET QUINTÉ+ GRATUIT

FORME : 11-5-14-13

REGULIER : 1-16-3-11

CLASSE : 8-2-12

PROGRES : 15-9-10

SYNTHESE DU SPECIALISTE
11-5-14-13-1-16-3-8-2-12-15-9-10

------------------------------------------------------------------------------------------

27/09/2022 PRIX DE BEAUNE
13:50 - Réunion 1 Course 1 - COMPIEGNE
HAIES - 3800m - 95000.00€

SPECIAL ABONNE VIP ORDRE

 L'INCONTOURNABLE 03

TIERCE:03-16-10
QUARTE image03-16-10-02-05
QUINTE
image
03-16-10-02-05-08

PRONOSTIC MP1PMU ET QUINTÉ+ GRATUIT

FORME : 3-2-1-4

REGULIER : 16-9-6-3

CLASSE : 10-8-7-1

PROGRES : 5-11

SYNTHESE DU SPECIALISTE
3-2-1-4-16-9-6-10-7-8-5-11

------------------------------------------------------------------------------------------

26/09/2022 GRAND PRIX DE TROT DE LYON
13:50 - Réunion 1 Course 4 - LYON PARILLY
TROT ATTELE - 2850m - 33000.00€ - Corde à gauche

SPECIAL ABONNE VIP ORDRE

 L'INCONTOURNABLE 16

TIERCE:16-10-11
QUARTE image16-10-11-05-08
QUINTE
image
16-10-11-05-08-09

PRONOSTIC MP1PMU ET QUINTÉ+ GRATUIT

FORME : 16-14-7-2

REGULIER : 6-11-12-14

CLASSE : 5-13-8-10

PROGRES : 15

SYNTHESE DU SPECIALISTE
16-14-7-2-6-11-12-5-13-8-10-15

------------------------------------------------------------------------------------------

25/09/2022 GRAND PRIX DU PORTUGAL (PRIX D'ANCENIS)
15:15 - Réunion 1 Course 4 - PARIS-VINCENNES
TROT ATTELE - 2850m - 65000.00€ - Corde à gauche

SPECIAL ABONNE VIP ORDRE

 L'INCONTOURNABLE 13

TIERCE:13-04-06
QUARTE image13-04-06-03-02
QUINTE
image
13-04-06-03-02-09

PRONOSTIC MP1PMU ET QUINTÉ+ GRATUIT

FORME : 13-14-16-15

REGULIER : 4-11-3-13

CLASSE : 12-6-8-16

PROGRES : 5

SYNTHESE DU SPECIALISTE
13-14-16-15-4-11-3-12-6-8-5

------------------------------------------------------------------------------------------

24/09/2022 PRIX VIOLON II
15:15 - Réunion 1 Course 3 - AUTEUIL
STEEPLE CHASE - 4400m - 95000.00€

SPECIAL ABONNE VIP ORDRE

 L'INCONTOURNABLE 12

TIERCE:12-04-16
QUARTE image12-04-16-01-15
QUINTE
image
12-04-16-01-15-09

PRONOSTIC MP1PMU ET QUINTÉ+ GRATUIT

FORME : 12-14-2-10

REGULIER : 1-16-4-12

CLASSE : 15-13

PROGRES : 8-11-7 

SYNTHESE DU SPECIALISTE
12-14-2-10-1-4-15-13-8-11-7

------------------------------------------------------------------------------------------

23/09/2022 PRIX CLEOMEDE
20:15 - Réunion 1 Course 3 - PARIS-VINCENNES
TROT ATTELE - 2850m - 49000.00€ - Corde à gauche

SPECIAL ABONNE VIP ORDRE

 L'INCONTOURNABLE 11

TIERCE:11-14-13
QUARTE image11-14-13-12-02
QUINTE
image
11-14-13-12-02-05

PRONOSTIC MP1PMU ET QUINTÉ+ GRATUIT

FORME : 11-13-12-14

REGULIER : 8-5-9-11

CLASSE : 2-3-12

PROGRES : 7-6-10

SYNTHESE DU SPECIALISTE
11-13-12-14-8-5-9-2-3-7-6-10

------------------------------------------------------------------------------------------

22/09/2022 - Prix Bernard Le Quellec
13:50 - Réunion 1 Course 1 - Vincennes
TROT ATTELE - 2700m - 65000.00€

SPECIAL ABONNE VIP ORDRE

 L'INCONTOURNABLE 11

TIERCE:11-16-14
QUARTE image11-16-14-05-01
QUINTE
image
11-16-14-05-01-10

PRONOSTIC MP1PMU ET QUINTÉ+ GRATUIT

FORME : 14-11-5-12

REGULIER : 16-2-4-1

CLASSE : 6-8-4-14

PROGRES : 3-9

SYNTHESE DU SPECIALISTE
14-11-5-12-16-2-4-1-6-8-3-9

------------------------------------------------------------------------------------------

21/09/2022 PX CREDIT AGRICOLE - COEUR DE THIERACHE
13:50 - Réunion 1 Course 4 - LA CAPELLE
TROT ATTELE - 2700m - 32000.00€

SPECIAL ABONNE VIP ORDRE

 L'INCONTOURNABLE 15

TIERCE:15-06-01
QUARTE image15-06-01-08-05
QUINTE
image
15-06-01-08-05-11

PRONOSTIC MP1PMU ET QUINTÉ+ GRATUIT

FORME : 8-6-2-1

REGULIER : 12-7-4-6

CLASSE : 5-15-10-1

PROGRES : 13-11

SYNTHESE DU SPECIALISTE
8-6-2-1-12-7-4-5-15-10-13-11

------------------------------------------------------------------------------------------

20/09/2022 PRIX CALABRAIS
13:50 - Réunion 1 Course 2 - AUTEUIL
HAIES - 3600m - 95000.00€

SPECIAL ABONNE VIP ORDRE

 L'INCONTOURNABLE 10

TIERCE:10-05-13
QUARTE image10-05-13-03-06
QUINTE
image
10-05-13-03-06-01

PRONOSTIC MP1PMU ET QUINTÉ+ GRATUIT

FORME : 3-6-2-7

REGULIER : 4-9-1-8

CLASSE : 13-5-11-14

PROGRES : 12-11-10

SYNTHESE DU SPECIALISTE
3-6-7-2-4-9-1-8-13-5-11-14-12-10

------------------------------------------------------------------------------------------

19/09/2022 PRIX JOUVENCE
13:50 - Réunion 1 Course 1 - SAINT CLOUD
PLAT - 3000m - 50000.00€ - Corde à gauche

SPECIAL ABONNE VIP ORDRE

 L'INCONTOURNABLE 07

TIERCE:07-16-08
QUARTE image07-16-08-03-02
QUINTE
image
07-16-08-03-02-06

PRONOSTIC MP1PMU ET QUINTÉ+ GRATUIT

FORME : 7-2-16-8

REGULIER : 14-1-5-3

CLASSE : 13-15-4-7

PROGRES : 14-16

SYNTHESE DU SPECIALISTE
7-2-16-8-14-1-5-3-13-15-4

------------------------------------------------------------------------------------------

18/09/2022 CRITERIUM DES 5 ANS
15:15 - Réunion 1 Course 4 - PARIS-VINCENNES
TROT ATTELE - 3000m - 300000.00€ - Corde à gauche

SPECIAL ABONNE VIP ORDRE

 L'INCONTOURNABLE 16

TIERCE:16-13-07
QUARTE image16-13-07-15-12
QUINTE
image
16-13-07-15-12-11

PRONOSTIC MP1PMU ET QUINTÉ+ GRATUIT

FORME : 15-16-7-10

REGULIER : 6-4-12-5

CLASSE : 13-3-15-16

PROGRES : 1-9-14

SYNTHESE DU SPECIALISTE
15-16-7-10-6-4-12-5-13-3-1-9-14

------------------------------------------------------------------------------------------

17/09/2022 PRIX DU CABINET DES LIVRES
15:15 - Réunion 1 Course 3 - CHANTILLY
PLAT - 1200m - 50000.00€

SPECIAL ABONNE VIP ORDRE

 L'INCONTOURNABLE 02

TIERCE:02-07-01
QUARTE image02-07-01-05-09
QUINTE
image
02-07-01-05-09-08

PRONOSTIC MP1PMU ET QUINTÉ+ GRATUIT

FORME : 3-5-1-2

REGULIER : 7-15-11-13

CLASSE : 8-9-3

PROGRES : 6-4-16

SYNTHESE DU SPECIALISTE
3-5-1-2-7-15-11-13-8-9-6-4-16

------------------------------------------------------------------------------------------

16/09/2022 PRIX OPHELIA
20:15 - Réunion 1 Course 3 - PARIS-VINCENNES
TROT ATTELE - 2850m - 57000.00€ - Corde à gauche

SPECIAL ABONNE VIP ORDRE

 L'INCONTOURNABLE 15

TIERCE:15-05-03
QUARTE image15-05-03-06-01
QUINTE
image
15-05-03-01-06-08

PRONOSTIC MP1PMU ET QUINTÉ+ GRATUIT

FORME : 6-1-12-9

REGULIER : 7-15-4-5

CLASSE : 13-14-11-8

PROGRES : 1-7

SYNTHESE DU SPECIALISTE
6-1-12-9-7-15-4-5-13-14-11-8

------------------------------------------------------------------------------------------

15/09/2022 PRIX DE LA TABLE
18:20 - Réunion 1 Course 6 - LONGCHAMP
PLAT - 2000m - 50000.00€ - Corde à droit

SPECIAL ABONNE VIP ORDRE

 L'INCONTOURNABLE 06

TIERCE:06-07-10
QUARTE image06-07-10-11-09
QUINTE
image
06-07-10-11-09-01

PRONOSTIC MP1PMU ET QUINTÉ+ GRATUIT

FORME : 11-1-5-13

REGULIER : 9-8-4-6

CLASSE : 7-10-13-16

PROGRES : 12

SYNTHESE DU SPECIALISTE
11-1-5-13-9-8-4-6-7-10-13-16-12

------------------------------------------------------------------------------------------

14/09/2022 PRIX DE COMPIEGNE CITE IMPERIALE
13:50 - Réunion 1 Course 1 - COMPIEGNE
PLAT - 1600m - 55000.00€ - Corde à gauche

SPECIAL ABONNE VIP ORDRE

 L'INCONTOURNABLE 09

TIERCE:09-07-06
QUARTE image09-06-07-02-13
QUINTE
image
09-07-06-02-13-16

PRONOSTIC MP1PMU ET QUINTÉ+ GRATUIT

FORME : 9-2-6-7

REGULIER : 10-12-3-8

CLASSE : 11-13-5-6

PROGRES : 6-9-14

SYNTHESE DU SPECIALISTE
9-2-6-7-10-12-3-8-11-13-5-14

------------------------------------------------------------------------------------------

13/09/2022 PRIX ALAIN ET GILLES DE GOULAINE
13:50 - Réunion 1 Course 2 - AUTEUIL
HAIES - 3600m - 95000.00€

SPECIAL ABONNE VIP ORDRE

 L'INCONTOURNABLE 07

TIERCE:07-06-01
QUARTE image07-06-01-09-13
QUINTE
image
07-06-01-09-13-16

PRONOSTIC MP1PMU ET QUINTÉ+ GRATUIT

FORME : 12-13-6-7

REGULIER : 16-9-1-13

CLASSE : 5-15-4-12

PROGRES : 2-8

SYNTHESE DU SPECIALISTE
12-13-6-7-16-9-1-5-15-4-2-8

------------------------------------------------------------------------------------------

12/09/2022 GRAND PRIX JEAN DUMOUCH
13:50 - Réunion 1 Course 4 - BEAUMONT DE LOMAGNE
TROT ATTELE - 2550m - 37000.00€ - Corde à droite

SPECIAL ABONNE VIP ORDRE

 L'INCONTOURNABLE 11

TIERCE:11-04-08
QUARTE image11-04-08-09-06
QUINTE
image
11-04-08-09-06-05

PRONOSTIC MP1PMU ET QUINTÉ+ GRATUIT

FORME : 11-8-9-5

REGULIER : 7-1-4-11

CLASSE : 6-14-2-10

PROGRES : 3-16-12

SYNTHESE DU SPECIALISTE
11-8-9-5-7-1-4-6-14-2-10-3-16-12

------------------------------------------------------------------------------------------

11/09/2022 QATAR HANDICAP DES ARC TRIALS
15:15 - Réunion 1 Course 4 - LONGCHAMP
PLAT - 1400m - 50000.00€ - Corde à droite

SPECIAL ABONNE VIP ORDRE

 L'INCONTOURNABLE 11

TIERCE:11-15-01
QUARTE image11-15-01-08-07
QUINTE
image
11-15-01-10-07-03

PRONOSTIC MP1PMU ET QUINTÉ+ GRATUIT

FORME : 3-5-8-11

REGULIER : 14-10-7-9

CLASSE : 2-13-6-4

PROGRES : 1-15

SYNTHESE DU SPECIALISTE
3-5-8-11-14-10-7-9-2-13-6-4-1-15

------------------------------------------------------------------------------------------

10/09/2022 PRIX D'EAUBONNE
15:15 - Réunion 1 Course 3 - PARIS-VINCENNES
TROT ATTELE - 2100m - 49000.00€

SPECIAL ABONNE VIP ORDRE

 L'INCONTOURNABLE 07

TIERCE:07-13-05
QUARTE image07-13-05-11-02
QUINTE
image
07-13-05-11-02-08

PRONOSTIC MP1PMU ET QUINTÉ+ GRATUIT

FORME : 5-11-6-13

REGULIER : 7-4-12-5

CLASSE : 2-10-9-13

PROGRES : 1

SYNTHESE DU SPECIALISTE
5-11-6-13-7-4-12-2-10-9-1

------------------------------------------------------------------------------------------

09/09/2022 PRIX ADELINDA
20:15 - Réunion 1 Course 3 - PARIS-VINCENNES
TROT ATTELE - 2850m - 57000.00€ - Corde à gauche

SPECIAL ABONNE VIP ORDRE

 L'INCONTOURNABLE 11

TIERCE:11-08-10
QUARTE image11-08-10-06-01
QUINTE
image
11-08-10-06-01-07

PRONOSTIC MP1PMU ET QUINTÉ+ GRATUIT

FORME : 7-10-6-1

REGULIER : 11-2-5-7

CLASSE : 12-9-8-10

PROGRES : 14-4

SYNTHESE DU SPECIALISTE
7-10-6-1-11-2-5-12-9-8-14-4

------------------------------------------------------------------------------------------

08/09/2022 PRIX DE LONGCHAMP
18:20 - Réunion 1 Course 5 - LONGCHAMP
PLAT - 2200m - 55000.00€ - Corde à droite

SPECIAL ABONNE VIP ORDRE

 L'INCONTOURNABLE 03

TIERCE:03-06-04
QUARTE image03-06-04-11-16
QUINTE
image
03-06-04-11-16-02

PRONOSTIC MP1PMU ET QUINTÉ+ GRATUIT

FORME : 3-2-1-4

REGULIER : 11-9-8-6

CLASSE : 10-5-14-16

PROGRES : 13-12

SYNTHESE DU SPECIALISTE
3-2-1-4-11-9-8-6-10-5-14-16-13-12

------------------------------------------------------------------------------------------

07/09/2022 GRAND NATIONAL DU TROT PARIS-TURF
13:50 - Réunion 1 Course 1 - MESLAY DU MAINE
TROT ATTELE - 2875m - 90000.00€ - Corde à droite

SPECIAL ABONNE VIP ORDRE

 L'INCONTOURNABLE 11

TIERCE:11-06-03
QUARTE image11-06-03-02-01
QUINTE
image
11-06-03-02-01-08

PRONOSTIC MP1PMU ET QUINTÉ+ GRATUIT

FORME : 12-11-1-6

REGULIER : 3-2-14-13

CLASSE : 5-9-11-8

PROGRES : 6-11-3-2

SYNTHESE DU SPECIALISTE
12-11-1-6-3-2-14-13-5-9-8

------------------------------------------------------------------------------------------

06/09/2022 PRIX JEAN BART
13:50 - Réunion 1 Course 4 - AUTEUIL
HAIES - 3600m - 95000.00€

SPECIAL ABONNE VIP ORDRE

 L'INCONTOURNABLE 07

TIERCE:07-09-05
QUARTE image07-09-05-11-15
QUINTE
image
07-09-11-05-15-04

PRONOSTIC MP1PMU ET QUINTÉ+ GRATUIT

FORME : 11-5-10-9

REGULIER : 1-8-4-7

CLASSE : 3-2-6-11

PROGRES : 12-15-16

SYNTHESE DU SPECIALISTE
11-5-10-9-1-8-4-7-3-2-6-12-15-16

------------------------------------------------------------------------------------------

05/09/2022 PRIX V AND B - FINALE DU TROPHEE VERT
13:50 - Réunion 1 Course 4 - CRAON
TROT ATTELE - 2775m - 80000.00€ - Corde à droite

SPECIAL ABONNE VIP ORDRE

 L'INCONTOURNABLE 02

TIERCE:02-14-11
QUARTE image02-14-11-13-01
QUINTE
image
02-14-11-13-01-04

PRONOSTIC MP1PMU ET QUINTÉ+ GRATUIT

FORME : 14-13-6-11

REGULIER : 9-2-1-12

CLASSE : 7-14-4

PROGRES : NEANT

SYNTHESE DU SPECIALISTE
14-13-6-11-9-2-1-12-7-4

------------------------------------------------------------------------------------------

04/09/2022 PRIX DES GRANDES CARRIERES
15:15 - Réunion 1 Course 4 - LONGCHAMP
PLAT - 1850m - 50000.00€ - Corde à droite

SPECIAL ABONNE VIP ORDRE

 L'INCONTOURNABLE 05

TIERCE:05-08-01
QUARTE image05-08-01-07-11
QUINTE-
image
05-08-01-07-11-15

PRONOSTIC mp1PMU ET QUINTÉ+ GRATUIT

FORME : 13-5-8-10

REGULIER : 1-6-7-8

CLASSE : 2-16-4-14

PROGRES : 3-9-12

SYNTHESE DU SPECIALISTE
13-5-8-10-1-6-7-2-16-4-14-3-9-12

------------------------------------------------------------------------------------------

03/09/2022 CRITERIUM 5 ANS-Q2 - PRIX JOCKEY
15:15 - Réunion 1 Course 3 - PARIS-VINCENNES
TROT ATTELE - 2700m - 120000.00€ - Corde à gauche

SPECIAL ABONNE VIP ORDRE

 L'INCONTOURNABLE 13

TIERCE:13-07-14
QUARTE image13-07-14-08-10
QUINTE-
image
13-07-14-08-10-04

PRONOSTIC PMU ET QUINTÉ+ GRATUIT

FORME : 14-8-6-13

REGULIER : 7-9-12-14

CLASSE : 5-10-3-8

PROGRES : 2-12-1

SYNTHESE DU SPECIALISTE
14-8-6-13-7-9-12-5-10-3-2-12-1

------------------------------------------------------------------------------------------

02/09/2022 PRIX DIOTIMA
20:15 - Réunion 1 Course 3 - PARIS-VINCENNES
TROT ATTELE - 2100m - 49000.00€

SPECIAL ABONNE VIP ORDRE

 L'INCONTOURNABLE 11

TIERCE:11-02-05
QUARTE image11-02-05-03-07
QUINTE-
image
11-02-05-03-07-01

PRONOSTIC PMU ET QUINTÉ+ GRATUIT

FORME : 5-7-9-3

REGULIER : 2-13-10-5

CLASSE : 6-1-11-13

PROGRES : 14

SYNTHESE DU SPECIALISTE
5-7-9-3-2-13-10-6-1-11-14

------------------------------------------------------------------------------------------

1er/09/2022 PRIX DE LA REINE MARGUERITE
18:20 - Réunion 1 Course 5 - LONGCHAMP
PLAT - 2250m - 50000.00€ - Corde à droite

SPECIAL ABONNE VIP ORDRE

 L'INCONTOURNABLE 07

TIERCE:07-13-12
QUARTE image07-13-12-05-04
QUINTE-
image
07-13-12-05-04-08

PRONOSTIC PMU ET QUINTÉ+ GRATUIT

FORME : 5-2-8-11

REGULIER : 9-6-1-14

CLASSE : 4-12-13-3

PROGRES : 7-10

SYNTHESE DU SPECIALISTE
5-2-8-11-9-6-1-14-4-12-13-3-7-10

------------------------------------------------------------------------------------------

31/08/2022 PRIX DES HAUTS-DE-FRANCE
13:50 - Réunion 1 Course 1 - COMPIEGNE
PLAT - 1600m - 50000.00€ - Corde à gauche

SPECIAL ABONNE VIP ORDRE

 L'INCONTOURNABLE 03

TIERCE:03-02-10
QUARTE image03-02-10-07-16
QUINTE-
image
03-02-10-07-16-04

PRONOSTIC PMU ET QUINTÉ+ GRATUIT

FORME : 4-7-10-9-16

REGULIER : 4-7-6-16-14

CLASSE : 2-1-11-12-3

PROGRES : 7-14-9-13-2

SYNTHESE DU SPECIALISTE
4-7-10-9-16-6-14-2-1-11-12-3-13

------------------------------------------------------------------------------------------

30/08/2022 PRIX REGION NORMANDIE
13:50 - Réunion 1 Course 1 - DIEPPE
PLAT - 1100m - 50000.00€

SPECIAL ABONNE VIP ORDRE

 L'INCONTOURNABLE 04

TIERCE:04-05-02
QUARTE image04-05-02-03-01
QUINTE-
image
04-05-02-03-01-15

PRONOSTIC PMU ET QUINTÉ+ GRATUIT

FORME : 8-6-4-3

REGULIER : 1-5-15-3

CLASSE : 7-12-14

PROGRES : 16-2

SYNTHESE DU SPECIALISTE
8-6-4-3-1-5-15-7-12-14-16-2

------------------------------------------------------------------------------------------

29/08/2022 PRIX DE BARBIZON
13:50 - Réunion 1 Course 1 - PARIS-VINCENNES
TROT ATTELE - 2100m - 44000.00€

SPECIAL ABONNE VIP ORDRE

 L'INCONTOURNABLE 11

TIERCE:11-02-06
QUARTE image11-02-06-08
QUINTE-
image
11-02-06-08-03-07

PRONOSTIC PMU ET QUINTÉ+ GRATUIT

FORME : 3-1-4-6

REGULIER : 5-2-12-3

CLASSE : 11-8-9-1

PROGRES : 14

SYNTHESE DU SPECIALISTE
3-1-4-6-5-2-12-11-8-9-14

------------------------------------------------------------------------------------------

28/08/2022 BARRIERE GRAND HANDICAP
15:15 - Réunion 1 Course 3 - DEAUVILLE
PLAT - 1900m - 70000.00€ - Corde à droite

SPECIAL ABONNE VIP ORDRE

 L'INCONTOURNABLE 04

TIERCE:04-06-09
QUARTE image04-06-09-02-16
QUINTE-
image
04-06-09-02-16-10

PRONOSTIC PMU ET QUINTÉ+ GRATUIT

FORME : 4-2-3-1

REGULIER : 5-6-7-4

CLASSE : 15-14-9-3

PROGRES : 7-8-12

SYNTHESE DU SPECIALISTE
4-2-3-1-5-6-7-15-14-9-8-12

------------------------------------------------------------------------------------------

27/08/2022 PRIX DE LA RECONVERSION DES CHEVAUX DE COURSES (PRIX DES CHENETTES)
15:15 - Réunion 1 Course 3 - DEAUVILLE
PLAT - 1900m - 55000.00€ - Corde à droite

SPECIAL ABONNE VIP ORDRE

 L'INCONTOURNABLE 08

TIERCE:08-01-16
QUARTE image08-01-16-14-05
QUINTE-
image
08-01-16-14-05-03

PRONOSTIC PMU ET QUINTÉ+ GRATUIT

FORME : 2-14-1-12

REGULIER : 7-5-6-2

CLASSE : 13-3-16-10

PROGRES : 15-6

SYNTHESE DU SPECIALISTE
2-14-1-12-7-5-6-13-3-16-10-15-6

------------------------------------------------------------------------------------------

26/08/2022 PRIX D'ARGENTAN
20:15 - Réunion 1 Course 3 - CABOURG
TROT ATTELE - 2725m - 36000.00€

SPECIAL ABONNE VIP ORDRE

 L'INCONTOURNABLE 03

TIERCE:03-12-13
QUARTE image03-12-13-02-04
QUINTE-
image
03-12-13-02-04-07

PRONOSTIC PMU ET QUINTÉ+ GRATUIT

FORME : 13-12-8-11

REGULIER : 9-3-10-13

CLASSE : 4-7-2-10

PROGRES : 5-1

SYNTHESE DU SPECIALISTE
13-12-8-11-9-3-10-4-7-2-5-1

------------------------------------------------------------------------------------------

25/08/2022 HANDICAP DE LA MANCHE - PRIX APOLLINE MATIN 6H/9H
20:15 - Réunion 1 Course 7 - DEAUVILLE
PLAT - 3200m - 50000.00€ - Corde à droite

SPECIAL ABONNE VIP ORDRE

 L'INCONTOURNABLE 07

TIERCE:07-01-14
QUARTE image07-01-14-08-11
QUINTE-
image
07-01-14-08-11-12

PRONOSTIC PMU ET QUINTÉ+ GRATUIT

FORME : 3-5-12-2

REGULIER : 1-6-11-3

CLASSE : 4-10-8-7

PROGRES : 14

SYNTHESE DU SPECIALISTE
3-5-12-2-1-6-11-4-10-8-7-14

------------------------------------------------------------------------------------------

24/08/2022 PRIX DE BEAUNE
20:15 - Réunion 1 Course 7 - PARIS-VINCENNES
TROT ATTELE - 2700m - 65000.00€ - Corde à gauche

SPECIAL ABONNE VIP ORDRE

 L'INCONTOURNABLE 15

TIERCE:15-12-14
QUARTE image15-12-14-04-03
QUINTE-
image
15-12-14-03-04-01

PRONOSTIC PMU ET QUINTÉ+ GRATUIT

FORME : 12-15-9-14

REGULIER : 11-4-3-12

CLASSE : 10-1-16

PROGRES : 2-14

SYNTHESE DU SPECIALISTE
12-15-9-14-11-4-3-10-1-16-2

------------------------------------------------------------------------------------------

23/08/2022 PRIX DU JOURNAL "LE PAYS D'AUGE" (PRIX DU HAVRE)
18:00 - Réunion 1 Course 8 - DEAUVILLE
PLAT - 1500m - 50000.00€ - Corde à droite

SPECIAL ABONNE VIP ORDRE

 L'INCONTOURNABLE 14

TIERCE:14-10-16
QUARTE image14-10-16-02-08
QUINTE-
image
14-10-16-02-08-04

PRONOSTIC PMU ET QUINTÉ+ GRATUIT

FORME : 4-1-10-2

REGULIER : 6-8-5-11

CLASSE : 7-13-16-9

PROGRES : 14-3

SYNTHESE DU SPECIALISTE
4-1-10-2-6-8-5-11-7-13-16-9-14-3

------------------------------------------------------------------------------------------

22/08/2022 GRAND STEEPLE-CHASE - VILLE DE DEAUVILLE
18:00 - Réunion 1 Course 8 - CLAIREFONTAINE
STEEPLE CHASE - 4500m - 95000.00€

SPECIAL ABONNE VIP ORDRE

 L'INCONTOURNABLE 01

TIERCE:01-06-02
QUARTE image01-03-02-06-12
QUINTE-
image
01-03-02-06-10-12

PRONOSTIC PMU ET QUINTÉ+ GRATUIT

FORME : 3-1-5-12

REGULIER : 4-8-7-2

CLASSE : 5-6-9-11

PROGRES : 3-5

SYNTHESE DU SPECIALISTE
3-1-5-12-4-8-7-2-5-6-11-9

------------------------------------------------------------------------------------------

21/08/2022 DARLEY PRIX DES GRENIERS A SEL
15:15 - Réunion 1 Course 3 - DEAUVILLE
PLAT - 2000m - 50000.00€ - Corde à droite

SPECIAL ABONNE VIP ORDRE

 L'INCONTOURNABLE 04

TIERCE:04-13-02
QUARTE image04-13-02-06-01
QUINTE-
image
04-13-02-06-01-03

PRONOSTIC PMU ET QUINTÉ+ GRATUIT

FORME : 6-1-9-13

REGULIER : 8-5-10-7

CLASSE : 4-3-2-11

PROGRES : 12-15

SYNTHESE DU SPECIALISTE
6-1-9-13-8-5-10-7-4-3-2-11-12-15

------------------------------------------------------------------------------------------

20/08/2022 PRIX DE BALLEROY
15:15 - Réunion 1 Course 3 - DEAUVILLE
PLAT - 1400m - 55000.00€

SPECIAL ABONNE VIP ORDRE

 L'INCONTOURNABLE 01

TIERCE:01-04-12
QUARTE image01-04-12-07-08 
QUINTE-
image
01-04-12-07-08-13

PRONOSTIC PMU ET QUINTÉ+ GRATUIT

FORME : 1-13-7-2

REGULIER : 14-6-8-1

CLASSE : 4-9-3

PROGRES : 12-15

SYNTHESE DU SPECIALISTE
1-13-7-2-14-6-8-4-9-3-12-15

------------------------------------------------------------------------------------------

19/08/2022 PRIX DU CASINO PARTOUCHE DE PORNICHET
20:15 - Réunion 1 Course 5 - PORNICHET
TROT ATTELE - 2725m - 32000.00€ - Corde à gauche


SPECIAL ABONNE VIP ORDRE

 L'INCONTOURNABLE 07

TIERCE:07-01-12
QUARTE image07-01-12-10-06 
QUINTE-
image
07-01-12-10-06-04

PRONOSTIC PMU ET QUINTÉ+ GRATUIT

FORME : 7-10-12-11

REGULIER : 9-13-1-6

CLASSE : 5-3-7

PROGRES : Neant

SYNTHESE DU SPECIALISTE
7-10-12-11-9-13-1-6-5-3

------------------------------------------------------------------------------------------

18/08/2022 PRIX DU VIEUX BASSIN
20:15 - Réunion 1 Course 8 - DEAUVILLE
PLAT - 2500m - 55000.00€ - Corde à droite



SPECIAL ABONNE VIP ORDRE

 L'INCONTOURNABLE 03

TIERCE:03-15-13
QUARTE image03-15-13-01-08
QUINTE-
image
03-15-13-01-08-11

PRONOSTIC PMU ET QUINTÉ+ GRATUIT

FORME : 8-3-10-2

REGULIER : 1-13-14-8

CLASSE : 12-9-11-3

PROGRES : 5-4-15

SYNTHESE DU SPECIALISTE
8-3-10-2-1-13-14-12-9-11-5-4-15

------------------------------------------------------------------------------------------


17/08/2022 PRIX DU PONT DE L'ALMA
20:15 - Réunion 1 Course 8 - ENGHIEN
TROT ATTELE - 2150m - 57000.00€


SPECIAL ABONNE VIP ORDRE

 L'INCONTOURNABLE 09

TIERCE:09-05-02
QUARTE image09-05-02-03-04
QUINTE-
image
09-05-02-03-04-06

PRONOSTIC PMU ET QUINTÉ+ GRATUIT

FORME : 7-4-9-1

REGULIER : 3-13-6-9

CLASSE : 2-11-5

PROGRES : 7-4

SYNTHESE DU SPECIALISTE
7-4-9-1-3-15-6-2-11-5

------------------------------------------------------------------------------------------


16/08/2022 PRIX FRANCOIS ANDRE -TROPHEES DU PERSONNEL DES COURSES ET DE L'ELEVAGE
18:00 - Réunion 1 Course 8 - DEAUVILLE
PLAT - 1400m - 50000.00€


SPECIAL ABONNE VIP ORDRE

 L'INCONTOURNABLE 07

TIERCE:07-12-09
QUARTE image07-12-09-06-05
QUINTE
image
07-12-09-06-05-15

PRONOSTIC PMU ET QUINTÉ+ GRATUIT

FORME : 9-6-12-4

REGULIER : 13-7-11-12

CLASSE : 15-14-1-9

PROGRES : 5-3-2

SYNTHESE DU SPECIALISTE
9-6-12-4-13-7-11-15-14-1-5-3-2

------------------------------------------------------------------------------------------

15/08/2022 PRIX HONG KONG JOCKEY CLUB - GRAND HANDICAP DES SPRINTERS
15:15 - Réunion 1 Course 3 - DEAUVILLE
PLAT - 1200 m


SPECIAL ABONNE VIP ORDRE

 L'INCONTOURNABLE 06

TIERCE:06-07-01
QUARTE image06-07-01-04-09
QUINTE
image
06-07-01-04-09-12

PRONOSTIC PMU ET QUINTÉ+ GRATUIT

FORME : 4-3-1-7

REGULIER : 6-11-2-3

CLASSE : 5-8-9-14

PROGRES : 10

SYNTHESE DU SPECIALISTE
4-3-1-7-6-11-2-5-8-9-14-10

------------------------------------------------------------------------------------------

14/08/2022 PRIX DE BARNEVILLE
15:15 - Réunion 1 Course 3 - DEAUVILLE
PLAT - 2500m - 50000.00€ - Corde à droite


SPECIAL ABONNE VIP ORDRE

 L'INCONTOURNABLE 16

TIERCE:16-04-02
QUARTE image16-04-02-03-05
QUINTE
image
16-04-02-03-05-15

PRONOSTIC PMU ET QUINTÉ+ GRATUIT

FORME : 7-16-14-1

REGULIER : 13-12-6-16

CLASSE : 3-4-10-16

PROGRES : 11-8-2

SYNTHESE DU SPECIALISTE
7-16-14-1-13-12-6-3-4-10-11-8-2

------------------------------------------------------------------------------------------

13/08/2022 PRIX FOR MY BIO TATTOO (PRIX ROBERTET)
15:15 - Réunion 1 Course 3 - CLAIREFONTAINE
PLAT - 1800m


SPECIAL ABONNE VIP ORDRE

 L'INCONTOURNABLE 08

TIERCE:08-03-07
QUARTE image08-03-07-05-11
QUINTE
image
08-03-07-05-11-02

PRONOSTIC PMU ET QUINTÉ+ GRATUIT

FORME : 1-11-3-2

REGULIER : 5-8-15-16

CLASSE : 6-13-4

PROGRES : 7-9

SYNTHESE DU SPECIALISTE
1-11-3-2-5-8-15-16-6-13-4-7-9

------------------------------------------------------------------------------------------

12/08/2022 PRIX BRUNO COQUATRIX
20:15 - Réunion 1 Course 3 - CABOURG
TROT ATTELE - 2750m - 36000.00€ - Corde à droite


SPECIAL ABONNE VIP ORDRE

 L'INCONTOURNABLE 03

TIERCE:03-09-06
QUARTE image03-09-06-08-14
QUINTE
image
03-09-06-08-14-01

PRONOSTIC PMU ET QUINTÉ+ GRATUIT

FORME : 8-14-3

REGULIER : 1-9-6

CLASSE : 13-12-5

PROGRES : 4-7

SYNTHESE DU SPECIALISTE
8-14-3-1-9-6-13-12-5-4-7

------------------------------------------------------------------------------------------

11/08/2022 PRIX DE LA CONCORDE
20:15 - Réunion 1 Course 7 - ENGHIEN
TROT ATTELE - 2875m - 65000.00€ - Corde à gauche


SPECIAL ABONNE VIP ORDRE

 L'INCONTOURNABLE 06

TIERCE:06-01-03
QUARTE image06-01-03-12-07
QUINTE
image
06-01-03-12-07-09

PRONOSTIC PMU ET QUINTÉ+ GRATUIT

FORME : 6-9-12-7

REGULIER : 2-11-1-8

CLASSE : 10-13-3

PROGRES : Neant

SYNTHESE DU SPECIALISTE
6-9-12-7-2-11-1-8-10-13-3

------------------------------------------------------------------------------------------

10/08/2022 GRAND PRIX HENRI DESMONTILS (GRAND NATIONAL DU TROT PARIS-TURF)
20:15 - Réunion 1 Course 8 - PORNICHET
TROT ATTELE - 2725m - 90000.00€ - Corde à gauche


SPECIAL ABONNE VIP ORDRE

 L'INCONTOURNABLE 02

TIERCE:02-12-14
QUARTE image02-12-14-10-01
QUINTE
image
02-12-14-01-10-05

PRONOSTIC PMU ET QUINTÉ+ GRATUIT

FORME : 10-14-12-13

REGULIER : 1-2-9-7

CLASSE : 3-4-16-6

PROGRES : 5

SYNTHESE DU SPECIALISTE
10-14-12-13-1-2-9-7-3-4-16-6-5

------------------------------------------------------------------------------------------

09/08/2022 PRIX DE BAYEUX
18:00 - Réunion 1 Course 8 - DEAUVILLE
PLAT - 1600m - 50000.00€


SPECIAL ABONNE VIP ORDRE

 L'INCONTOURNABLE 02

TIERCE:02-14-07
QUARTE image02-14-07-01-12
QUINTE
image
02-14-07-01-12-08

PRONOSTIC PMU ET QUINTÉ+ GRATUIT

FORME : 1-6-2-8

REGULIER : 11-14-5-1

CLASSE : 10-12-4-8

PROGRES : 3-7

SYNTHESE DU SPECIALISTE
1-6-2-8-11-14-5-10-12-4-3-7

------------------------------------------------------------------------------------------

08/08/2022 PRIX JOURNAL LE VEINARD (PRIX DE LA VILLE DE TOURGEVILLE)
18:00 - Réunion 1 Course 8 - CLAIREFONTAINE
HAIES - 3600m - 95000.00€

SPECIAL ABONNE VIP ORDRE

 L'INCONTOURNABLE 01

TIERCE:01-12-03
QUARTE image01-12-03-05-10
QUINTE
image
01-12-03-05-10-04

PRONOSTIC PMU ET QUINTÉ+ GRATUIT

FORME : 1-16-3-5

REGULIER : 4-13-12-10

CLASSE : 7-2-14-1

PROGRES : 15-6

SYNTHESE DU SPECIALISTE
1-16-3-5-4-13-12-10-7-2-14-15-6

------------------------------------------------------------------------------------------


07/08/2022 GRAND HANDICAP DE DEAUVILLE
15:15 - Réunion 1 Course 3 - DEAUVILLE
PLAT - 1600m - 100000.00€


SPECIAL ABONNE VIP ORDRE

 L'INCONTOURNABLE 07

TIERCE:07-14-02
QUARTE image07-14-02-03-15
QUINTE
image
07-14-02-03-15-05

PRONOSTIC PMU ET QUINTÉ+ GRATUIT

FORME : 3-9-14-4

REGULIER : 1-7-10-16

CLASSE : 2-6-13-5

PROGRES : 12-8-11-15

SYNTHESE DU SPECIALISTE
3-9-14-4-1-7-10-16-2-6-13-5-12-8-11-15

------------------------------------------------------------------------------------------

06/08/2022 PRIX DES COLLECTIVITES LOCALES
15:15 - Réunion 1 Course 3 - DEAUVILLE
PLAT - 1900m - 50000.00€ - Corde à droite

SPECIAL ABONNE VIP ORDRE

 L'INCONTOURNABLE 13

TIERCE:13-01-10
QUARTE image13-01-10-14-12
QUINTE
image
13-01-10-14-15-12

PRONOSTIC PMU ET QUINTÉ+ GRATUIT

FORME : 13-14-10-3

REGULIER : 1-11-15-6

CLASSE : 4-5-8-2

PROGRES : 7-9-16

SYNTHESE DU SPECIALISTE
13-14-10-3-1-11-15-6-4-5-8-2-9-16

------------------------------------------------------------------------------------------

05/08/2022 PRIX DES LYCOPODES
20:15 - Réunion 1 Course 3 - CABOURG
TROT ATTELE - 2750m - 36000.00€ - Corde à droite

SPECIAL ABONNE VIP ORDRE

 L'INCONTOURNABLE 10

TIERCE:10-02-16
QUARTE image10-02-16-07-04
QUINTE
image
10-02-16-07-04-09

PRONOSTIC PMU ET QUINTÉ+ GRATUIT

FORME : 7-6-10-9

REGULIER : 5-3-16-7

CLASSE : 8-15-2-6

PROGRES : 1-11

SYNTHESE DU SPECIALISTE
7-6-10-9-5-3-16-8-15-2-1-11

------------------------------------------------------------------------------------------

04/08/2022 PRIX DE LA FEDERATION DES ELEVEURS DU GALOP (PRIX DU CHAMP DURAND)
20:15 - Réunion 1 Course 7 - DEAUVILLE
PLAT - 1200m - 55000.00€

SPECIAL ABONNE VIP ORDRE

 L'INCONTOURNABLE 16

TIERCE:16-07-01
QUARTE image16-07-01-03-09
QUINTE
image
16-07-01-03-09-02

PRONOSTIC PMU ET QUINTÉ+ GRATUIT

FORME : 16-4-2-7

REGULIER : 13-3-1-10

CLASSE : 5-14-6-9

PROGRES : 12-8

SYNTHESE DU SPECIALISTE
16-4-2-7-13-3-1-10-5-14-6-9-12-8

------------------------------------------------------------------------------------------

03/08/2022 PRIX DE PIGALLE
20:15 - Réunion 1 Course 8 - ENGHIEN
TROT ATTELE - 2875m - 57000.00€ - Corde à gauche

SPECIAL ABONNE VIP ORDRE

 L'INCONTOURNABLE 07

TIERCE:07-14-11
QUARTE image07-14-11-10-13
QUINTE
image
07-14-11-10-13-12

PRONOSTIC PMU ET QUINTÉ+ GRATUIT

FORME : 8-7-10-11

REGULIER : 12-14-13-5

CLASSE : 4-2-1

PROGRES : 3-11

SYNTHESE DU SPECIALISTE
8-7-10-11-12-14-13-5-4-2-1-3

------------------------------------------------------------------------------------------

02/08/2022 PRIX DE LA VILLA LUCIE
18:00 - Réunion 1 Course 9 - DEAUVILLE
PLAT - 1300m - 50000.00€ - Corde à droite

SPECIAL ABONNE VIP ORDRE

 L'INCONTOURNABLE 08

TIERCE:08-10-02
QUARTE image08-10-02-11-16
QUINTE
image
08-10-02-11-16-09

PRONOSTIC PMU ET QUINTÉ+ GRATUIT

FORME : 5-8-10-12

REGULIER : 2-1-11-16

CLASSE : 9-6-15-3

PROGRES : 7-4-14

SYNTHESE DU SPECIALISTE
5-8-10-12-2-1-11-16-9-6-15-3-7-4-14

------------------------------------------------------------------------------------------

1er/08/2022 PRIX DJSL BOIS (PRIX DE LA ROUTE DES VACHES)
18:00 - Réunion 1 Course 8 - DIEPPE
PLAT - 1800m - 50000.00€ - Corde à droite

SPECIAL ABONNE VIP ORDRE

 L'INCONTOURNABLE 07

TIERCE:07-01-11
QUARTE image07-01-11-10-06
QUINTE
image
07-01-11-10-06-05

PRONOSTIC PMU ET QUINTÉ+ GRATUIT

FORME : 10-1-5-14

REGULIER : 13-7-2-1

CLASSE : 16-3-4-5

PROGRES : 11-9-12

SYNTHESE DU SPECIALISTE
10-1-5-14-13-7-2-16-3-4-11-9-12

------------------------------------------------------------------------------------------

Quinté du 31 juillet 2022 : Hippodrome de Clairefontaine - Prix de la Ferme Saint-Siméon-Plat: 2400 m- R1-C3

SPECIAL ABONNE VIP ORDRE

 L'INCONTOURNABLE 09

TIERCE:09-07-13
QUARTE image09-07-13-01-11
QUINTE
image
09-07-13-01-11-05

PRONOSTIC PMU ET QUINTÉ+ GRATUIT

FORME : 9-1-7-15

REGULIER : 12-10-4-16

CLASSE : 11-6-13-9

PROGRES : 8-2-3

SYNTHESE DU SPECIALISTE
9-1-7-15-12-10-4-16-11-6-13-8-2-3

------------------------------------------------------------------------------------------

30/07/2022 PRIX DOMINIQUE SAVARY
15:15 - Réunion 1 Course 3 - ENGHIEN
TROT ATTELE - 2150m - 57000.00€

SPECIAL ABONNE VIP ORDRE

 L'INCONTOURNABLE 05

TIERCE:05-14-01

QUARTE image05-14-01-09-10

QUINTE
image
05-14-01-09-10-07

PRONOSTIC PMU ET QUINTÉ+ GRATUIT

FORME : 7-5-9-4

REGULIER : 10-11-2-7

CLASSE : 1-6-12-5

PROGRES : 13-14

SYNTHESE DU SPECIALISTE
7-5-9-4-10-11-2-1-6-12-13-14

------------------------------------------------------------------------------------------

29/07/2022 PRIX HENRI BALLIERE
20:15 - Réunion 1 Course 4 - CABOURG
TROT ATTELE - 2750m - 32000.00€ - Corde à droite

SPECIAL ABONNE VIP ORDRE

 L'INCONTOURNABLE 02

TIERCE:02-11-03

QUARTE image02-11-03-01-05

QUINTE
image
02-11-03-01-09-05

PRONOSTIC PMU ET QUINTÉ+ GRATUIT

FORME : 3-1-11-13

REGULIER : 10-3-8-4

CLASSE : 6-7-9

PROGRES : 3-2

SYNTHESE DU SPECIALISTE
3-1-11-13-10-8-4-6-7-9-2

------------------------------------------------------------------------------------------

28/07/2022 GRANDE COURSE DE HAIES - PRIX GUILLAUME D'ORNANO
20:15 - Réunion 1 Course 7 - CLAIREFONTAINE
HAIES - 3600m - 95000.00€

SPECIAL ABONNE VIP ORDRE

 L'INCONTOURNABLE 12

TIERCE:12-04-02

QUARTE image12-04-02-11-01

QUINTE
image
12-04-02-11-01-10

PRONOSTIC PMU ET QUINTÉ+ GRATUIT

FORME : 11-14-6-4

REGULIER : 1-5-2-8

CLASSE : 10-12-3-9

PROGRES : 7-15

SYNTHESE DU SPECIALISTE
11-14-6-4-1-5-2-8-10-12-3-9-7-15

------------------------------------------------------------------------------------------

27/07/2022 PRIX DU MEDOC
20:15 - Réunion 1 Course 7 - ENGHIEN
TROT ATTELE - 2875m - 65000.00€ - Corde à gauche

SPECIAL ABONNE VIP ORDRE

 L'INCONTOURNABLE 08

TIERCE:08-13-03

QUARTE image08-13-03-06-02

QUINTE
image
08-13-03-02-06-05

PRONOSTIC PMU ET QUINTÉ+ GRATUIT

FORME : 8-2-12-13

REGULIER : 7-3-5-8

CLASSE : 10-6-9

PROGRES : 4

SYNTHESE DU SPECIALISTE
8-2-12-13-7-3-5-10-6-9-4

------------------------------------------------------------------------------------------

26/07/2022 PRIX DU CHATEAU DE COMPIEGNE
18:00 - Réunion 1 Course 8 - COMPIEGNE
PLAT - 2000m - 55000.00€ - Corde à gauche

SPECIAL ABONNE VIP ORDRE

 L'INCONTOURNABLE 03

TIERCE:03-02-04

QUARTE image03-02-04-06-01

QUINTE
image
03-02-04-06-01-05

PRONOSTIC PMU ET QUINTÉ+ GRATUIT

FORME : 3-4-1-11

REGULIER : 15-6-2-8

CLASSE : 7-12-5-10

PROGRES : 9-16-14

SYNTHESE DU SPECIALISTE
3-4-1-11-15-6-2-8-7-12-5-10-9-16-14

------------------------------------------------------------------------------------------

25/07/2022 PRIX LE JOURNAL "LE VEINARD"
18:00 - Réunion 1 Course 9 - TARBES
PLAT - 2100m - 50000.00€ - Corde à droite

SPECIAL ABONNE VIP ORDRE

 L'INCONTOURNABLE 03

TIERCE:03-02-11

QUARTE image03-02-11
-01-06
QUINTE
image
03-02-11-01-06-07

PRONOSTIC PMU ET QUINTÉ+ GRATUIT

FORME : 9-2-1-6

REGULIER : 11-12-9-7

CLASSE : 13-8-5-12

PROGRES : 10-3-4

SYNTHESE DU SPECIALISTE
9-2-1-6-11-12-7-13-8-5-10-3-4

------------------------------------------------------------------------------------------

24/07/2022 PRIX TOYOTA TOYS MOTORS (PRIX DE SUSSEX)
15:15 - Réunion 1 Course 2 - DIEPPE
PLAT - 2400m - 50000.00€ - Corde à droite

SPECIAL ABONNE VIP ORDRE

 L'INCONTOURNABLE 06

TIERCE:06-10-09

QUARTE image06-10-09-05-07
QUINTE
image
06-10-09-05-07-04

PRONOSTIC PMU ET QUINTÉ+ GRATUIT

FORME : 7-5-14-6

REGULIER : 8-9-7-13

CLASSE : 10-4-7-6

PROGRES : 1-11

SYNTHESE DU SPECIALISTE
7-5-14-6-8-9-13-10-4-1-11

------------------------------------------------------------------------------------------

23/07/2022 PRIX DE LA PORTE MONTMARTRE
15:15 - Réunion 1 Course 5 - ENGHIEN
TROT ATTELE - 2150m - 57000.00€

SPECIAL ABONNE VIP ORDRE

 L'INCONTOURNABLE 02

TIERCE:02-04-05

QUARTE image02-04-05-06-14
QUINTE
image
02-04-05-06-14-03

PRONOSTIC PMU ET QUINTÉ+ GRATUIT

FORME : 3-4-6-1

REGULIER : 2-11-14-3

CLASSE : 7-9-10-6

PROGRES : 13-5

SYNTHESE DU SPECIALISTE
3-4-6-1-2-11-14-7-9-10-13-5

------------------------------------------------------------------------------------------

22/07/2022 GRAND PRIX DE LA VILLE DE CABOURG
20:15 - Réunion 1 Course 3 - CABOURG
TROT ATTELE - 2750m - 48000.00€ - Corde à droite

SPECIAL ABONNE VIP ORDRE

 L'INCONTOURNABLE 06

TIERCE:06-07-02

QUARTE image06-07-02-05-10
QUINTE
image
06-07-02-05-10-01

PRONOSTIC PMU ET QUINTÉ+ GRATUIT

FORME : 5-7-3-4

REGULIER : 14-1-12-9

CLASSE : 6-2-5-7

PROGRES : 11-15

SYNTHESE DU SPECIALISTE
5-7-3-4-14-1-12-9-6-2-11-15

------------------------------------------------------------------------------------------

21/07/2022 PRIX DE LA VENUS DE PARIS - GRAND PRIX DES FEMMES JOCKEYS
20:15 - Réunion 1 Course 6 - LONGCHAMP
PLAT - 1850m - 50000.00€ - Corde à droite

SPECIAL ABONNE VIP ORDRE

 L'INCONTOURNABLE 06

TIERCE:06-04-05

QUARTE image06-04-05-10-12
QUINTE
image
06-04-05-10-12-09

PRONOSTIC PMU ET QUINTÉ+ GRATUIT

FORME : 10-5-1-6

REGULIER : 7-14-4-5

CLASSE : 11-8-3-10

PROGRES : 2-12

SYNTHESE DU SPECIALISTE
10-5-1-6-7-14-4-11-8-3-2-12

------------------------------------------------------------------------------------------

20/07/2022 PRIX IMPERATRICE EUGENIE
20:15 - Réunion 1 Course 3 - VICHY
PLAT - 2400m - 55000.00€ - Corde à droite

SPECIAL ABONNE VIP ORDRE

 L'INCONTOURNABLE 03

TIERCE:03-06-10

QUARTE image03-06-10-05-02
QUINTE
image
03-06-10-05-02-07

PRONOSTIC PMU ET QUINTÉ+ GRATUIT

FORME : 3-5-8-1

REGULIER : 6-7-4-2

CLASSE : 10-9-13-3

PROGRES : 12

SYNTHESE DU SPECIALISTE
3-5-8-1-6-7-4-2-10-9-13-12

------------------------------------------------------------------------------------------

19/07/2022 PRIX VICHY COMMUNAUTE
20:15 - Réunion 1 Course 1 - VICHY
PLAT - 3000m - 50000.00€ - Corde à droite

SPECIAL ABONNE VIP ORDRE

 L'INCONTOURNABLE 07

TIERCE:07-10-14

QUARTE image07-10-14-04-05
QUINTE
image
07-10-14-04-05-03

PRONOSTIC PMU ET QUINTÉ+ GRATUIT

FORME : 4-3-1-12

REGULIER : 1-8-2-6

CLASSE : 5-9-11-10

PROGRES : 15-14-7

SYNTHESE DU SPECIALISTE
4-3-1-12-8-2-6-5-9-11-10-15-14-7

------------------------------------------------------------------------------------------

18/07/2022 GRAND PRIX DE LA REGION NORMANDIE
18:00 - Réunion 1 Course 5 - CHERBOURG
TROT ATTELE - 2625m - 32000.00€ - Corde à gauche

SPECIAL ABONNE VIP ORDRE

 L'INCONTOURNABLE 06

TIERCE:06-16-12

QUARTE image06-16-12-2-04
QUINTE
image
06-16-12-02-04-08

PRONOSTIC PMU ET QUINTÉ+ GRATUIT

FORME : 6-2-16-12

REGULIER : 15-14-9

CLASSE : 8-7-6-1

PROGRES : 10

SYNTHESE DU SPECIALISTE
6-2-16-12-15-14-9-8-7-1-10

------------------------------------------------------------------------------------------

17/07/2022 PRIX DU CHATEAU NEUF
15:15 - Réunion 1 Course 4 - CHANTILLY
PLAT - 2100m - 50000.00€ - Corde à droite

SPECIAL ABONNE VIP ORDRE

 L'INCONTOURNABLE 01

TIERCE:01-09-08

QUARTE image01-09-08-10-14
QUINTE
image
01-09-08-10-14-03

PRONOSTIC PMU ET QUINTÉ+ GRATUIT

FORME : 3-1-9-4

REGULIER : 8-2-5

CLASSE : 7-12-6-3

PROGRES : 11-14

SYNTHESE DU SPECIALISTE
3-1-9-4-8-2-5-7-12-6-11-14

------------------------------------------------------------------------------------------

16/07/2022 PRIX DE LA PORTE DE SEVRES
15:15 - Réunion 1 Course 3 - ENGHIEN
TROT ATTELE - 2875m - 57000.00€ - Corde à gauche

SPECIAL ABONNE VIP ORDRE

 L'INCONTOURNABLE 07

TIERCE:7-10-12

QUARTE image07-10-12-09-04
QUINTE
image
07-10-12-09-04-01

PRONOSTIC PMU ET QUINTÉ+ GRATUIT

FORME : 9-10-16-15

REGULIER : 14-1-10-9

CLASSE : 3-12-5

PROGRES : 7-4

SYNTHESE DU SPECIALISTE
9-10-16-15-14-1-3-12-5-7-4

------------------------------------------------------------------------------------------

15/07/2022 PRIX DES HELLEBORES
20:15 - Réunion 1 Course 3 - CABOURG
TROT ATTELE - 2750m - 34000.00€ - Corde à droite

SPECIAL ABONNE VIP ORDRE

 L'INCONTOURNABLE 11

TIERCE:11-07-08

QUARTE image11-07-08-10-14
QUINTE
image
11-07-08-10-14-12

PRONOSTIC PMU ET QUINTÉ+ GRATUIT

FORME : 10-14-3-12

REGULIER : 15-4-7-14

CLASSE : 8-11-3

PROGRES : 16-2

SYNTHESE DU SPECIALISTE
10-14-3-12-15-4-7-8-11-16-2

------------------------------------------------------------------------------------------

14/07/2022 LONGINES HANDICAP DE LA FETE NATIONALE
20:15 - Réunion 1 Course 7 - LONGCHAMP
PLAT - 1600m - 50000.00€ - Corde à droite

SPECIAL ABONNE VIP ORDRE

 L'INCONTOURNABLE 02

TIERCE:02-08-09

QUARTE image02-08-09-10-05
QUINTE
image
02-08-10-09-05-11

PRONOSTIC PMU ET QUINTÉ+ GRATUIT

FORME : 8-7-10-3

REGULIER : 4-1-12-16

CLASSE : 5-11-2-9

PROGRES : 15-6-13-14

SYNTHESE DU SPECIALISTE
8-7-10-3-4-1-12-16-5-11-2-9-15-6-13-14

------------------------------------------------------------------------------------------

13/07/2022 PRIX DE L'OPERA
20:15 - Réunion 1 Course 8 - ENGHIEN
TROT ATTELE - 2150m - 65000.00€

SPECIAL ABONNE VIP ORDRE

 L'INCONTOURNABLE 11

TIERCE:11-02-04

QUARTE image11-02-04-08-09
QUINTE
image
11-02-04-08-09-01

PRONOSTIC PMU ET QUINTÉ+ GRATUIT

FORME : 2-11-4-8

REGULIER : 13-10-6-2

CLASSE : 3-5-11-8

PROGRES : 1-9-12

SYNTHESE DU SPECIALISTE
2-11-4-8-13-10-6-3-5-1-9-12

------------------------------------------------------------------------------------------

12/07/2022 PRIX LE ROI SOLEIL
18:00 - Réunion 1 Course 8 - CHANTILLY
PLAT - 1200m - 55000.00€

SPECIAL ABONNE VIP ORDRE

 L'INCONTOURNABLE 01

TIERCE:01-15-14

QUARTE image01-15-14-02-10
QUINTE
image
14-01-15-10-02-16

PRONOSTIC PMU ET QUINTÉ+ GRATUIT

FORME : 1-10-3-7

REGULIER : 11-4-10-3

CLASSE : 13-8-2

PROGRES : 14-15-9-5

SYNTHESE DU SPECIALISTE
1-10-3-7-11-4-13-8-2-14-15-9-5

------------------------------------------------------------------------------------------

11/07/2022PRIX DE LA VILLE DES SABLES D'OLONNE
18:00 - Réunion 1 Course 4 - LES SABLES D'OLONNE
TROT ATTELE - 2775m - 38000.00€ - Corde à gauche

SPECIAL ABONNE VIP ORDRE

 L'INCONTOURNABLE 05

TIERCE:05-07-11

QUARTE image05-07-11-04-13
QUINTE
image
05-07-11-04-13-06

PRONOSTIC PMU ET QUINTÉ+ GRATUIT

FORME : 5-7-6-13

REGULIER : 11-4-16-5

CLASSE : 1-16-8-7

PROGRES : 12-10

SYNTHESE DU SPECIALISTE
5-7-6-13-11-4-16-1-8-12-10

------------------------------------------------------------------------------------------

10/07/2022 PRIX DE LA PLACE MORNY
15:15 - Réunion 1 Course 4 - DEAUVILLE
PLAT - 1200m - 50000.00€

SPECIAL ABONNE VIP ORDRE

 L'INCONTOURNABLE 07

TIERCE:07-04-03

QUARTE image07-04-03-08-09
QUINTE
image
07-04-03-08-09-16

PRONOSTIC PMU ET QUINTÉ+ GRATUIT

FORME : 8-6-5-2

REGULIER : 7-4-11-8

CLASSE : 3-1-15-14

PROGRES : 10-9-13-12

SYNTHESE DU SPECIALISTE
8-6-5-2-7-4-11-3-1-15-14-10-9-13-12

------------------------------------------------------------------------------------------

09/07/2022 PRIX DE LA MANCHE
15:15 - Réunion 1 Course 3 - ENGHIEN
TROT ATTELE - 2875m - 90000.00€ - Corde à gauche

SPECIAL ABONNE VIP ORDRE

 L'INCONTOURNABLE 13

TIERCE:13-07-14

QUARTE image13-07-14-10-15
QUINTE
image
13-07-14-10-15-12

PRONOSTIC PMU ET QUINTÉ+ GRATUIT

FORME : 11-13-10-12

REGULIER : 2-4-7-11

CLASSE : 8-14-13-6

PROGRES : 5-3

SYNTHESE DU SPECIALISTE
11-13-10-12-2-4-7-8-14-6-5-3

------------------------------------------------------------------------------------------

08/07/2022 PRIX PAUL VIEL
20:15 - Réunion 1 Course 3 - CABOURG
TROT ATTELE - 2750m - 32000.00€ - Corde à droite

SPECIAL ABONNE VIP ORDRE

 L'INCONTOURNABLE 11

TIERCE:11-04-13

QUARTE image11-04-13-12-06
QUINTE
image
11-04-13-12-06-01

PRONOSTIC PMU ET QUINTÉ+ GRATUIT

FORME : 13-8-12-11

REGULIER : 4-1-13-8

CLASSE : 7-2-9-11

PROGRES : 3

SYNTHESE DU SPECIALISTE
13-8-12-11-4-1-7-2-9-3

------------------------------------------------------------------------------------------

07/07/2022 PRIX DU PETIT PRE
20:15 - Réunion 1 Course 6 - LONGCHAMP
PLAT - 1850m - 55000.00€ - Corde à droite

SPECIAL ABONNE VIP ORDRE

 L'INCONTOURNABLE 15

TIERCE:15-06-16

QUARTE image15-06-16-02-13
QUINTE
image
15-06-16-02-05-13

PRONOSTIC PMU ET QUINTÉ+ GRATUIT

FORME : 2-9-3-5

REGULIER : 15-8-2-13

CLASSE : 5-12-10-9

PROGRES : 6-4-16

SYNTHESE DU SPECIALISTE
2-9-3-5-15-8-13-12-10-6-4-16

------------------------------------------------------------------------------------------

06/07/2022 PRIX DE LA TOUR EIFFEL
20:15 - Réunion 1 Course 7 - ENGHIEN
TROT ATTELE - 2150m - 44000.00€

SPECIAL ABONNE VIP ORDRE

 L'INCONTOURNABLE 05

TIERCE:05-13-02

QUARTE image05-13-02-14-11
QUINTE
image
05-13-02-14-11-09

PRONOSTIC PMU ET QUINTÉ+ GRATUIT

FORME : 5-14-12-13

REGULIER : 2-11-4-5

CLASSE : 9-8-5-14

PROGRES : 2-3-1

SYNTHESE DU SPECIALISTE
5-14-12-13-2-11-9-8-3-1

------------------------------------------------------------------------------------------

05/07/2022 PRIX JEAN-MICHEL BAZIRE
18:00 - Réunion 1 Course 4 - VICHY
TROT ATTELE - 2950m - 36000.00€ - Corde à droite

SPECIAL ABONNE VIP ORDRE

 L'INCONTOURNABLE 13

TIERCE:13-08-06

QUARTE image13-08-06-04-13
QUINTE
image
13-08-06-04-13-09

PRONOSTIC PMU ET QUINTÉ+ GRATUIT

FORME : 11-8-10-13

REGULIER : 14-6-8-11

CLASSE : 9-4-12-10

PROGRES : 1

SYNTHESE DU SPECIALISTE
11-8-10-13-14-6-9-4-12-1

------------------------------------------------------------------------------------------

04/07/2022 PRIX ECURIE VIVALDI (PRIX LEOPOLD D'ORSETTI)
18:00 - Réunion 1 Course 8 - CLAIREFONTAINE
STEEPLE CHASE - 3900m - 95000.00€

SPECIAL ABONNE VIP ORDRE

 L'INCONTOURNABLE 13

TIERCE:13-09-05

QUARTE image13-09-05-01-12
QUINTE
image
13-09-05-01-12-03

PRONOSTIC PMU ET QUINTÉ+ GRATUIT

FORME : 6-11-13-10

REGULIER : 1-4-11-12

CLASSE : 5-3-9-6

PROGRES : 4

SYNTHESE DU SPECIALISTE
6-11-13-10-1-4-12-5-3-9

------------------------------------------------------------------------------------------

03/07/2022 HANDICAP DES HAUTS-DE-SEINE
15:15 - Réunion 1 Course 4 - SAINT CLOUD
PLAT - 2400m - 50000.00€ - Corde à gauche

SPECIAL ABONNE VIP ORDRE

 L'INCONTOURNABLE 04

TIERCE:04-11-15

QUARTE image04-11-15-06-13
QUINTE
image
04-11-15-06-13-07

PRONOSTIC PMU ET QUINTÉ+ GRATUIT

FORME : 4-15-6-3

REGULIER : 1-8-5-9

CLASSE : 2-11-4-15

PROGRES : 10-12

SYNTHESE DU SPECIALISTE
4-15-6-3-1-8-5-9-2-11-10-12

------------------------------------------------------------------------------------------

02/07/2022 PRIX DU ROUSSILLON
15:15 - Réunion 1 Course 3 - ENGHIEN
TROT ATTELE - 2150m - 57000.00€

SPECIAL ABONNE VIP ORDRE

 L'INCONTOURNABLE 06

TIERCE:06-10-01

QUARTE image06-10-01-12-04
QUINTE
image
06-10-01-12-04-05

PRONOSTIC PMU ET QUINTÉ+ GRATUIT

FORME : 6-4-13-3

REGULIER : 5-8-6-4

CLASSE : 12-9-14-5

PROGRES : 10-1

SYNTHESE DU SPECIALISTE
6-4-13-3-5-8-12-9-14-10-1

------------------------------------------------------------------------------------------

1er/07/2022 PRIX URANIA
20:15 - Réunion 1 Course 3 - PARIS-VINCENNES
TROT ATTELE - 2700m - 57000.00€ - Corde à gauche

SPECIAL ABONNE VIP ORDRE

 L'INCONTOURNABLE 08

TIERCE:08-02-12

QUARTE image08-02-12-13-11
QUINTE
image
08-02-12-11-13-07

PRONOSTIC PMU ET QUINTÉ+ GRATUIT

FORME : 12-11-8-13

REGULIER : 2-10-12

CLASSE : 8-16-3

PROGRES : 1-7-14

SYNTHESE DU SPECIALISTE
12-11-8-13-2-10-16-3-1-7-14

------------------------------------------------------------------------------------------

30/06/2022 PRIX DU PALAIS DES GLACES
20:15 - Réunion 1 Course 6 - LONGCHAMP
PLAT - 1850m - 50000.00€ - Corde à droite

SPECIAL ABONNE VIP ORDRE

 L'INCONTOURNABLE 05

TIERCE:05-07-06

QUARTE image05-07-06-02-08
QUINTE
image
05-07-06-02-08-14

PRONOSTIC PMU ET QUINTÉ+ GRATUIT

FORME : 2-10-8-5

REGULIER : 13-6-3-5

CLASSE : 7-4-12-2

PROGRES : 15-1

SYNTHESE DU SPECIALISTE
2-10-8-5-13-6-3-7-4-12-15-1

------------------------------------------------------------------------------------------